ISO-10303-21;
HEADER;
/* Generated by software containing ST-Developer
 * from STEP Tools, Inc. (www.steptools.com) 
 */

FILE_DESCRIPTION(
/* description */ (''),
/* implementation_level */ '2;1');

FILE_NAME(
/* name */ 
'\\\\Tske00\\w\\Work\\TOSTE\\\X2\7D99624B\X0\\\02_\X2\6EB663A5\X0\\\\X2\6EB663A5752830C130FC30BA\X0\\\
T-8\\T-8 60\X\D735.stp',
/* time_stamp */ '2022-04-28T09:45:40+09:00',
/* author */ ('3dcad-eng'),
/* organization */ (''),
/* preprocessor_version */ 'ST-DEVELOPER v18.1',
/* originating_system */ 'Autodesk Inventor 2022',
/* authorisation */ '');

FILE_SCHEMA (('AUTOMOTIVE_DESIGN { 1 0 10303 214 3 1 1 }'));
ENDSEC;

DATA;
#10=MECHANICAL_DESIGN_GEOMETRIC_PRESENTATION_REPRESENTATION('',(#13),#355);
#11=SHAPE_REPRESENTATION_RELATIONSHIP('SRR','None',#362,#12);
#12=ADVANCED_BREP_SHAPE_REPRESENTATION('',(#14),#354);
#13=STYLED_ITEM('',(#371),#14);
#14=MANIFOLD_SOLID_BREP('\X2\30BD30EA30C330C9\X0\1',#123);
#15=PLANE('',#150);
#16=PLANE('',#151);
#17=PLANE('',#155);
#18=FACE_BOUND('',#32,.T.);
#19=FACE_BOUND('',#35,.T.);
#20=FACE_BOUND('',#37,.T.);
#21=FACE_BOUND('',#39,.T.);
#22=FACE_BOUND('',#41,.T.);
#23=FACE_OUTER_BOUND('',#30,.T.);
#24=FACE_OUTER_BOUND('',#31,.T.);
#25=FACE_OUTER_BOUND('',#33,.T.);
#26=FACE_OUTER_BOUND('',#34,.T.);
#27=FACE_OUTER_BOUND('',#36,.T.);
#28=FACE_OUTER_BOUND('',#38,.T.);
#29=FACE_OUTER_BOUND('',#40,.T.);
#30=EDGE_LOOP('',(#84,#85,#86,#87,#88));
#31=EDGE_LOOP('',(#89,#90,#91,#92));
#32=EDGE_LOOP('',(#93,#94));
#33=EDGE_LOOP('',(#95,#96,#97,#98,#99));
#34=EDGE_LOOP('',(#100));
#35=EDGE_LOOP('',(#101));
#36=EDGE_LOOP('',(#102));
#37=EDGE_LOOP('',(#103));
#38=EDGE_LOOP('',(#104,#105,#106,#107));
#39=EDGE_LOOP('',(#108,#109));
#40=EDGE_LOOP('',(#110));
#41=EDGE_LOOP('',(#111));
#42=CIRCLE('',#144,42.55);
#43=CIRCLE('',#146,79.6);
#44=CIRCLE('',#147,79.6);
#45=CIRCLE('',#149,44.55);
#46=CIRCLE('',#152,82.6);
#47=CIRCLE('',#154,82.6);
#48=LINE('',#261,#52);
#49=LINE('',#267,#53);
#50=LINE('',#273,#54);
#51=LINE('',#350,#55);
#52=VECTOR('',#160,42.55);
#53=VECTOR('',#167,79.6);
#54=VECTOR('',#174,44.55);
#55=VECTOR('',#185,82.6);
#56=B_SPLINE_CURVE_WITH_KNOTS('',3,(#192,#193,#194,#195,#196,#197,#198,
#199,#200,#201,#202,#203,#204,#205,#206,#207,#208,#209,#210,#211,#212,#213,
#214,#215,#216,#217,#218,#219,#220,#221,#222,#223,#224,#225,#226,#227,#228,
#229,#230,#231,#232,#233,#234,#235,#236,#237,#238,#239,#240,#241),
 .UNSPECIFIED.,.F.,.F.,(4,2,2,2,2,2,2,2,2,2,2,2,2,2,2,2,2,2,2,2,2,2,2,2,
4),(0.,0.822083566326959,1.64416713265392,2.46625069898088,3.28833426530784,
4.1073662934654,4.92639832162297,5.74543034978053,6.5644623779381,7.38349440609566,
8.20252643425323,9.02155846241079,9.84059049056836,10.6626740568953,11.4847576232223,
12.3068411895492,13.1289247558762,13.9510083222032,14.7730918885301,15.5951754548571,
16.417259021184,17.2362910493416,18.0553230774992,18.8743551056567,19.6933871338143),
 .UNSPECIFIED.);
#57=B_SPLINE_CURVE_WITH_KNOTS('',3,(#242,#243,#244,#245,#246,#247,#248,
#249,#250,#251,#252,#253,#254,#255,#256,#257,#258,#259),.UNSPECIFIED.,.F.,
 .F.,(4,2,2,2,2,2,2,2,4),(19.6933871338143,20.5124191619719,21.3314511901294,
22.150483218287,22.9695152464446,23.7915988127715,24.6136823790985,25.4357659454254,
26.2578495117524),.UNSPECIFIED.);
#58=B_SPLINE_CURVE_WITH_KNOTS('',3,(#275,#276,#277,#278,#279,#280,#281,
#282,#283,#284,#285,#286,#287,#288,#289,#290,#291,#292),.UNSPECIFIED.,.F.,
 .F.,(4,2,2,2,2,2,2,2,4),(0.,0.861222861168033,1.72244572233607,2.5836685835041,
3.44489144467213,4.30278089642428,5.16067034817642,6.01855979992856,6.8764492516807),
 .UNSPECIFIED.);
#59=B_SPLINE_CURVE_WITH_KNOTS('',3,(#293,#294,#295,#296,#297,#298,#299,
#300,#301,#302,#303,#304,#305,#306,#307,#308,#309,#310,#311,#312,#313,#314,
#315,#316,#317,#318,#319,#320,#321,#322,#323,#324,#325,#326,#327,#328,#329,
#330,#331,#332,#333,#334,#335,#336,#337,#338,#339,#340,#341,#342),
 .UNSPECIFIED.,.F.,.F.,(4,2,2,2,2,2,2,2,2,2,2,2,2,2,2,2,2,2,2,2,2,2,2,2,
4),(6.8764492516807,7.73433870343285,8.59222815518499,9.45011760693713,
10.3080070586893,11.1692299198573,12.0304527810253,12.8916756421934,13.7528985033614,
14.6141213645294,15.4753442256975,16.3365670868655,17.1977899480335,18.0556793997857,
18.9135688515378,19.77145830329,20.6293477550421,21.4872372067942,22.3451266585464,
23.2030161102985,24.0609055620507,24.9221284232187,25.7833512843867,26.6445741455548,
27.5057970067228),.UNSPECIFIED.);
#60=VERTEX_POINT('',#190);
#61=VERTEX_POINT('',#191);
#62=VERTEX_POINT('',#260);
#63=VERTEX_POINT('',#264);
#64=VERTEX_POINT('',#266);
#65=VERTEX_POINT('',#270);
#66=VERTEX_POINT('',#272);
#67=VERTEX_POINT('',#274);
#68=VERTEX_POINT('',#345);
#69=VERTEX_POINT('',#348);
#70=EDGE_CURVE('',#60,#61,#56,.T.);
#71=EDGE_CURVE('',#61,#60,#57,.T.);
#72=EDGE_CURVE('',#61,#62,#48,.T.);
#73=EDGE_CURVE('',#62,#62,#42,.T.);
#74=EDGE_CURVE('',#63,#63,#43,.T.);
#75=EDGE_CURVE('',#63,#64,#49,.T.);
#76=EDGE_CURVE('',#64,#64,#44,.T.);
#77=EDGE_CURVE('',#65,#65,#45,.T.);
#78=EDGE_CURVE('',#65,#66,#50,.T.);
#79=EDGE_CURVE('',#67,#66,#58,.T.);
#80=EDGE_CURVE('',#66,#67,#59,.T.);
#81=EDGE_CURVE('',#68,#68,#46,.T.);
#82=EDGE_CURVE('',#69,#69,#47,.T.);
#83=EDGE_CURVE('',#69,#68,#51,.T.);
#84=ORIENTED_EDGE('',*,*,#70,.F.);
#85=ORIENTED_EDGE('',*,*,#71,.F.);
#86=ORIENTED_EDGE('',*,*,#72,.T.);
#87=ORIENTED_EDGE('',*,*,#73,.F.);
#88=ORIENTED_EDGE('',*,*,#72,.F.);
#89=ORIENTED_EDGE('',*,*,#74,.F.);
#90=ORIENTED_EDGE('',*,*,#75,.T.);
#91=ORIENTED_EDGE('',*,*,#76,.F.);
#92=ORIENTED_EDGE('',*,*,#75,.F.);
#93=ORIENTED_EDGE('',*,*,#70,.T.);
#94=ORIENTED_EDGE('',*,*,#71,.T.);
#95=ORIENTED_EDGE('',*,*,#77,.F.);
#96=ORIENTED_EDGE('',*,*,#78,.T.);
#97=ORIENTED_EDGE('',*,*,#79,.F.);
#98=ORIENTED_EDGE('',*,*,#80,.F.);
#99=ORIENTED_EDGE('',*,*,#78,.F.);
#100=ORIENTED_EDGE('',*,*,#77,.T.);
#101=ORIENTED_EDGE('',*,*,#73,.T.);
#102=ORIENTED_EDGE('',*,*,#81,.T.);
#103=ORIENTED_EDGE('',*,*,#74,.T.);
#104=ORIENTED_EDGE('',*,*,#82,.F.);
#105=ORIENTED_EDGE('',*,*,#83,.T.);
#106=ORIENTED_EDGE('',*,*,#81,.F.);
#107=ORIENTED_EDGE('',*,*,#83,.F.);
#108=ORIENTED_EDGE('',*,*,#79,.T.);
#109=ORIENTED_EDGE('',*,*,#80,.T.);
#110=ORIENTED_EDGE('',*,*,#82,.T.);
#111=ORIENTED_EDGE('',*,*,#76,.T.);
#112=CYLINDRICAL_SURFACE('',#143,42.55);
#113=CYLINDRICAL_SURFACE('',#145,79.6);
#114=CYLINDRICAL_SURFACE('',#148,44.55);
#115=CYLINDRICAL_SURFACE('',#153,82.6);
#116=ADVANCED_FACE('',(#23),#112,.F.);
#117=ADVANCED_FACE('',(#24,#18),#113,.F.);
#118=ADVANCED_FACE('',(#25),#114,.T.);
#119=ADVANCED_FACE('',(#26,#19),#15,.T.);
#120=ADVANCED_FACE('',(#27,#20),#16,.F.);
#121=ADVANCED_FACE('',(#28,#21),#115,.T.);
#122=ADVANCED_FACE('',(#29,#22),#17,.T.);
#123=CLOSED_SHELL('',(#116,#117,#118,#119,#120,#121,#122));
#124=DERIVED_UNIT_ELEMENT(#126,1.);
#125=DERIVED_UNIT_ELEMENT(#357,-3.);
#126=(
MASS_UNIT()
NAMED_UNIT(*)
SI_UNIT($,.GRAM.)
);
#127=DERIVED_UNIT((#124,#125));
#128=MEASURE_REPRESENTATION_ITEM('density measure',
POSITIVE_RATIO_MEASURE(1.),#127);
#129=PROPERTY_DEFINITION_REPRESENTATION(#134,#131);
#130=PROPERTY_DEFINITION_REPRESENTATION(#135,#132);
#131=REPRESENTATION('material name',(#133),#354);
#132=REPRESENTATION('density',(#128),#354);
#133=DESCRIPTIVE_REPRESENTATION_ITEM('\X2\4E00822C\X0\','\X2\4E00822C\X0\');
#134=PROPERTY_DEFINITION('material property','material name',#364);
#135=PROPERTY_DEFINITION('material property','density of part',#364);
#136=DATE_TIME_ROLE('creation_date');
#137=APPLIED_DATE_AND_TIME_ASSIGNMENT(#138,#136,(#364));
#138=DATE_AND_TIME(#139,#140);
#139=CALENDAR_DATE(2022,31,3);
#140=LOCAL_TIME(0,0,0.,#141);
#141=COORDINATED_UNIVERSAL_TIME_OFFSET(0,0,.BEHIND.);
#142=AXIS2_PLACEMENT_3D('placement',#188,#156,#157);
#143=AXIS2_PLACEMENT_3D('',#189,#158,#159);
#144=AXIS2_PLACEMENT_3D('',#262,#161,#162);
#145=AXIS2_PLACEMENT_3D('',#263,#163,#164);
#146=AXIS2_PLACEMENT_3D('',#265,#165,#166);
#147=AXIS2_PLACEMENT_3D('',#268,#168,#169);
#148=AXIS2_PLACEMENT_3D('',#269,#170,#171);
#149=AXIS2_PLACEMENT_3D('',#271,#172,#173);
#150=AXIS2_PLACEMENT_3D('',#343,#175,#176);
#151=AXIS2_PLACEMENT_3D('',#344,#177,#178);
#152=AXIS2_PLACEMENT_3D('',#346,#179,#180);
#153=AXIS2_PLACEMENT_3D('',#347,#181,#182);
#154=AXIS2_PLACEMENT_3D('',#349,#183,#184);
#155=AXIS2_PLACEMENT_3D('',#351,#186,#187);
#156=DIRECTION('axis',(0.,0.,1.));
#157=DIRECTION('refdir',(1.,0.,0.));
#158=DIRECTION('center_axis',(0.,0.,1.));
#159=DIRECTION('ref_axis',(1.,0.,0.));
#160=DIRECTION('',(0.,0.,1.));
#161=DIRECTION('center_axis',(0.,0.,-1.));
#162=DIRECTION('ref_axis',(1.,0.,0.));
#163=DIRECTION('center_axis',(1.,0.,0.));
#164=DIRECTION('ref_axis',(0.,1.,0.));
#165=DIRECTION('center_axis',(1.,0.,0.));
#166=DIRECTION('ref_axis',(0.,1.,0.));
#167=DIRECTION('',(1.,0.,0.));
#168=DIRECTION('center_axis',(-1.,0.,0.));
#169=DIRECTION('ref_axis',(0.,1.,0.));
#170=DIRECTION('center_axis',(0.,0.,1.));
#171=DIRECTION('ref_axis',(1.,0.,0.));
#172=DIRECTION('center_axis',(0.,0.,1.));
#173=DIRECTION('ref_axis',(1.,0.,0.));
#174=DIRECTION('',(0.,0.,-1.));
#175=DIRECTION('center_axis',(0.,0.,1.));
#176=DIRECTION('ref_axis',(1.,0.,0.));
#177=DIRECTION('center_axis',(1.,0.,0.));
#178=DIRECTION('ref_axis',(0.,0.,-1.));
#179=DIRECTION('center_axis',(-1.,0.,0.));
#180=DIRECTION('ref_axis',(0.,1.,0.));
#181=DIRECTION('center_axis',(1.,0.,0.));
#182=DIRECTION('ref_axis',(0.,1.,0.));
#183=DIRECTION('center_axis',(1.,0.,0.));
#184=DIRECTION('ref_axis',(0.,1.,0.));
#185=DIRECTION('',(-1.,0.,0.));
#186=DIRECTION('center_axis',(1.,0.,0.));
#187=DIRECTION('ref_axis',(0.,0.,-1.));
#188=CARTESIAN_POINT('',(0.,0.,0.));
#189=CARTESIAN_POINT('Origin',(0.,0.,0.));
#190=CARTESIAN_POINT('',(5.55111512312578E-16,-42.55,67.2730072168623));
#191=CARTESIAN_POINT('',(-42.55,-1.07434259779392E-16,79.6));
#192=CARTESIAN_POINT('Ctrl Pts',(5.55111512312578E-16,-42.55,67.2730072168623));
#193=CARTESIAN_POINT('Ctrl Pts',(2.7402785544232,-42.55,67.2730072168623));
#194=CARTESIAN_POINT('Ctrl Pts',(5.54952607160295,-42.2811795389367,67.4454110748397));
#195=CARTESIAN_POINT('Ctrl Pts',(11.0946615392512,-41.1752822766392,68.1261898643885));
#196=CARTESIAN_POINT('Ctrl Pts',(13.8308059520824,-40.338700599649,68.6332794257556));
#197=CARTESIAN_POINT('Ctrl Pts',(19.0482961632678,-38.153175693981,69.8718300681755));
#198=CARTESIAN_POINT('Ctrl Pts',(21.5348318981698,-36.8024835162832,70.6026158251336));
#199=CARTESIAN_POINT('Ctrl Pts',(26.1234952253683,-33.7006643268154,72.1347168675231));
#200=CARTESIAN_POINT('Ctrl Pts',(28.22574874886,-31.9490383301152,72.9346444086087));
#201=CARTESIAN_POINT('Ctrl Pts',(31.9421279862412,-28.232659092734,74.4519335115574));
#202=CARTESIAN_POINT('Ctrl Pts',(33.6927199194449,-26.1338765133708,75.2261011171597));
#203=CARTESIAN_POINT('Ctrl Pts',(36.7972439855062,-21.5439484021881,76.6668381898447));
#204=CARTESIAN_POINT('Ctrl Pts',(38.1514136204239,-19.052634072092,77.3323579167926));
#205=CARTESIAN_POINT('Ctrl Pts',(40.3410848989797,-13.8249825717812,78.4357464044018));
#206=CARTESIAN_POINT('Ctrl Pts',(41.1783418509912,-11.0835501934948,78.8739059593151));
#207=CARTESIAN_POINT('Ctrl Pts',(42.2829959509675,-5.53616978932481,79.4562077515412));
#208=CARTESIAN_POINT('Ctrl Pts',(42.55,-2.73010676052522,79.6));
#209=CARTESIAN_POINT('Ctrl Pts',(42.55,2.73010676052522,79.6));
#210=CARTESIAN_POINT('Ctrl Pts',(42.2829959509675,5.53616978932481,79.4562077515412));
#211=CARTESIAN_POINT('Ctrl Pts',(41.1783418509912,11.0835501934948,78.8739059593151));
#212=CARTESIAN_POINT('Ctrl Pts',(40.3410848989797,13.8249825717812,78.4357464044018));
#213=CARTESIAN_POINT('Ctrl Pts',(38.1514136204239,19.052634072092,77.3323579167926));
#214=CARTESIAN_POINT('Ctrl Pts',(36.7972439855062,21.543948402188,76.6668381898447));
#215=CARTESIAN_POINT('Ctrl Pts',(33.6927199194449,26.1338765133708,75.2261011171596));
#216=CARTESIAN_POINT('Ctrl Pts',(31.9421279862412,28.232659092734,74.4519335115574));
#217=CARTESIAN_POINT('Ctrl Pts',(28.22574874886,31.9490383301152,72.9346444086087));
#218=CARTESIAN_POINT('Ctrl Pts',(26.1234952253683,33.7006643268154,72.1347168675231));
#219=CARTESIAN_POINT('Ctrl Pts',(21.5348318981698,36.8024835162832,70.6026158251336));
#220=CARTESIAN_POINT('Ctrl Pts',(19.0482961632678,38.153175693981,69.8718300681755));
#221=CARTESIAN_POINT('Ctrl Pts',(13.8308059520824,40.3387005996489,68.6332794257556));
#222=CARTESIAN_POINT('Ctrl Pts',(11.0946615392512,41.1752822766392,68.1261898643885));
#223=CARTESIAN_POINT('Ctrl Pts',(5.54952607160296,42.2811795389367,67.4454110748396));
#224=CARTESIAN_POINT('Ctrl Pts',(2.7402785544232,42.55,67.2730072168623));
#225=CARTESIAN_POINT('Ctrl Pts',(-2.7402785544232,42.55,67.2730072168623));
#226=CARTESIAN_POINT('Ctrl Pts',(-5.54952607160296,42.2811795389367,67.4454110748396));
#227=CARTESIAN_POINT('Ctrl Pts',(-11.0946615392512,41.1752822766393,68.1261898643885));
#228=CARTESIAN_POINT('Ctrl Pts',(-13.8308059520824,40.3387005996489,68.6332794257556));
#229=CARTESIAN_POINT('Ctrl Pts',(-19.0482961632678,38.153175693981,69.8718300681755));
#230=CARTESIAN_POINT('Ctrl Pts',(-21.5348318981698,36.8024835162832,70.6026158251336));
#231=CARTESIAN_POINT('Ctrl Pts',(-26.1234952253683,33.7006643268154,72.1347168675231));
#232=CARTESIAN_POINT('Ctrl Pts',(-28.22574874886,31.9490383301152,72.9346444086087));
#233=CARTESIAN_POINT('Ctrl Pts',(-31.9421279862412,28.232659092734,74.4519335115574));
#234=CARTESIAN_POINT('Ctrl Pts',(-33.6927199194449,26.1338765133708,75.2261011171596));
#235=CARTESIAN_POINT('Ctrl Pts',(-36.7972439855062,21.5439484021881,76.6668381898447));
#236=CARTESIAN_POINT('Ctrl Pts',(-38.1514136204239,19.052634072092,77.3323579167926));
#237=CARTESIAN_POINT('Ctrl Pts',(-40.3410848989797,13.8249825717812,78.4357464044018));
#238=CARTESIAN_POINT('Ctrl Pts',(-41.1783418509912,11.0835501934948,78.8739059593151));
#239=CARTESIAN_POINT('Ctrl Pts',(-42.2829959509675,5.53616978932482,79.4562077515412));
#240=CARTESIAN_POINT('Ctrl Pts',(-42.55,2.73010676052522,79.6));
#241=CARTESIAN_POINT('Ctrl Pts',(-42.55,3.88578058618805E-15,79.6));
#242=CARTESIAN_POINT('Ctrl Pts',(-42.55,4.9960036108132E-15,79.6));
#243=CARTESIAN_POINT('Ctrl Pts',(-42.55,-2.73010676052521,79.6));
#244=CARTESIAN_POINT('Ctrl Pts',(-42.2829959509675,-5.53616978932481,79.4562077515412));
#245=CARTESIAN_POINT('Ctrl Pts',(-41.1783418509912,-11.0835501934948,78.8739059593151));
#246=CARTESIAN_POINT('Ctrl Pts',(-40.3410848989797,-13.8249825717812,78.4357464044018));
#247=CARTESIAN_POINT('Ctrl Pts',(-38.1514136204239,-19.052634072092,77.3323579167926));
#248=CARTESIAN_POINT('Ctrl Pts',(-36.7972439855062,-21.5439484021881,76.6668381898447));
#249=CARTESIAN_POINT('Ctrl Pts',(-33.6927199194449,-26.1338765133708,75.2261011171597));
#250=CARTESIAN_POINT('Ctrl Pts',(-31.9421279862412,-28.232659092734,74.4519335115574));
#251=CARTESIAN_POINT('Ctrl Pts',(-28.22574874886,-31.9490383301152,72.9346444086087));
#252=CARTESIAN_POINT('Ctrl Pts',(-26.1234952253683,-33.7006643268154,72.1347168675231));
#253=CARTESIAN_POINT('Ctrl Pts',(-21.5348318981698,-36.8024835162832,70.6026158251336));
#254=CARTESIAN_POINT('Ctrl Pts',(-19.0482961632678,-38.153175693981,69.8718300681755));
#255=CARTESIAN_POINT('Ctrl Pts',(-13.8308059520824,-40.338700599649,68.6332794257556));
#256=CARTESIAN_POINT('Ctrl Pts',(-11.0946615392512,-41.1752822766392,68.1261898643885));
#257=CARTESIAN_POINT('Ctrl Pts',(-5.54952607160296,-42.2811795389367,67.4454110748397));
#258=CARTESIAN_POINT('Ctrl Pts',(-2.7402785544232,-42.55,67.2730072168623));
#259=CARTESIAN_POINT('Ctrl Pts',(-5.55111512312578E-16,-42.55,67.2730072168623));
#260=CARTESIAN_POINT('',(-42.55,5.21087213037199E-15,89.));
#261=CARTESIAN_POINT('',(-42.55,-5.21087213037199E-15,0.));
#262=CARTESIAN_POINT('Origin',(0.,0.,89.));
#263=CARTESIAN_POINT('Origin',(0.,0.,0.));
#264=CARTESIAN_POINT('',(-170.,-79.6,-9.74818852121293E-15));
#265=CARTESIAN_POINT('Origin',(-170.,0.,0.));
#266=CARTESIAN_POINT('',(170.,-79.6,9.74818852121293E-15));
#267=CARTESIAN_POINT('',(0.,-79.6,-9.74818852121293E-15));
#268=CARTESIAN_POINT('Origin',(170.,0.,0.));
#269=CARTESIAN_POINT('Origin',(0.,0.,0.));
#270=CARTESIAN_POINT('',(-44.55,-5.45580149020146E-15,89.));
#271=CARTESIAN_POINT('Origin',(0.,0.,89.));
#272=CARTESIAN_POINT('',(-44.55,-4.94834679435104E-15,82.6));
#273=CARTESIAN_POINT('',(-44.55,-5.45580149020146E-15,0.));
#274=CARTESIAN_POINT('',(0.,-44.55,69.5561463854921));
#275=CARTESIAN_POINT('Ctrl Pts',(0.,-44.55,69.5561463854921));
#276=CARTESIAN_POINT('Ctrl Pts',(-2.87074287056011,-44.55,69.5561463854921));
#277=CARTESIAN_POINT('Ctrl Pts',(-5.81305430121761,-44.2682275137808,69.7391561252744));
#278=CARTESIAN_POINT('Ctrl Pts',(-11.6197866409447,-43.1097219739776,70.4611789075447));
#279=CARTESIAN_POINT('Ctrl Pts',(-14.4844846288684,-42.2335137673082,70.9988049388213));
#280=CARTESIAN_POINT('Ctrl Pts',(-19.9465200039112,-39.9450474271084,72.3110833454085));
#281=CARTESIAN_POINT('Ctrl Pts',(-22.5493091479373,-38.530956288704,73.0850112416473));
#282=CARTESIAN_POINT('Ctrl Pts',(-27.3524379045851,-35.2838500925775,74.7067827081317));
#283=CARTESIAN_POINT('Ctrl Pts',(-29.5529108660301,-33.4503033376913,75.5531664076746));
#284=CARTESIAN_POINT('Ctrl Pts',(-33.4427608040753,-29.5604533996461,77.1579484529036));
#285=CARTESIAN_POINT('Ctrl Pts',(-35.2751713360466,-27.3637764420581,77.9764995646736));
#286=CARTESIAN_POINT('Ctrl Pts',(-38.5252180408402,-22.5592896478756,79.4996175838646));
#287=CARTESIAN_POINT('Ctrl Pts',(-39.9431020341148,-19.9512982900289,80.203082888221));
#288=CARTESIAN_POINT('Ctrl Pts',(-42.236100694225,-14.4781751148101,81.3693509025265));
#289=CARTESIAN_POINT('Ctrl Pts',(-43.1130544982747,-11.607692183409,81.8324686671779));
#290=CARTESIAN_POINT('Ctrl Pts',(-44.270211225338,-5.79848118917592,82.4479779128199));
#291=CARTESIAN_POINT('Ctrl Pts',(-44.55,-2.85963150584048,82.6));
#292=CARTESIAN_POINT('Ctrl Pts',(-44.55,-5.55111512312578E-15,82.6));
#293=CARTESIAN_POINT('Ctrl Pts',(-44.55,-3.88578058618805E-15,82.6));
#294=CARTESIAN_POINT('Ctrl Pts',(-44.55,2.85963150584047,82.6));
#295=CARTESIAN_POINT('Ctrl Pts',(-44.270211225338,5.79848118917591,82.4479779128199));
#296=CARTESIAN_POINT('Ctrl Pts',(-43.1130544982747,11.6076921834089,81.8324686671779));
#297=CARTESIAN_POINT('Ctrl Pts',(-42.236100694225,14.4781751148101,81.3693509025265));
#298=CARTESIAN_POINT('Ctrl Pts',(-39.9431020341148,19.9512982900289,80.203082888221));
#299=CARTESIAN_POINT('Ctrl Pts',(-38.5252180408402,22.5592896478757,79.4996175838646));
#300=CARTESIAN_POINT('Ctrl Pts',(-35.2751713360466,27.3637764420581,77.9764995646736));
#301=CARTESIAN_POINT('Ctrl Pts',(-33.4427608040753,29.5604533996461,77.1579484529036));
#302=CARTESIAN_POINT('Ctrl Pts',(-29.5529108660301,33.4503033376912,75.5531664076746));
#303=CARTESIAN_POINT('Ctrl Pts',(-27.3524379045851,35.2838500925775,74.7067827081317));
#304=CARTESIAN_POINT('Ctrl Pts',(-22.5493091479373,38.530956288704,73.0850112416473));
#305=CARTESIAN_POINT('Ctrl Pts',(-19.9465200039112,39.9450474271084,72.3110833454085));
#306=CARTESIAN_POINT('Ctrl Pts',(-14.4844846288684,42.2335137673082,70.9988049388213));
#307=CARTESIAN_POINT('Ctrl Pts',(-11.6197866409447,43.1097219739776,70.4611789075447));
#308=CARTESIAN_POINT('Ctrl Pts',(-5.81305430121761,44.2682275137808,69.7391561252744));
#309=CARTESIAN_POINT('Ctrl Pts',(-2.87074287056011,44.55,69.5561463854921));
#310=CARTESIAN_POINT('Ctrl Pts',(2.87074287056011,44.55,69.5561463854921));
#311=CARTESIAN_POINT('Ctrl Pts',(5.81305430121761,44.2682275137808,69.7391561252745));
#312=CARTESIAN_POINT('Ctrl Pts',(11.6197866409447,43.1097219739776,70.4611789075447));
#313=CARTESIAN_POINT('Ctrl Pts',(14.4844846288684,42.2335137673082,70.9988049388213));
#314=CARTESIAN_POINT('Ctrl Pts',(19.9465200039112,39.9450474271084,72.3110833454085));
#315=CARTESIAN_POINT('Ctrl Pts',(22.5493091479373,38.530956288704,73.0850112416473));
#316=CARTESIAN_POINT('Ctrl Pts',(27.3524379045851,35.2838500925775,74.7067827081317));
#317=CARTESIAN_POINT('Ctrl Pts',(29.5529108660301,33.4503033376913,75.5531664076746));
#318=CARTESIAN_POINT('Ctrl Pts',(33.4427608040752,29.5604533996461,77.1579484529036));
#319=CARTESIAN_POINT('Ctrl Pts',(35.2751713360466,27.3637764420581,77.9764995646736));
#320=CARTESIAN_POINT('Ctrl Pts',(38.5252180408402,22.5592896478756,79.4996175838645));
#321=CARTESIAN_POINT('Ctrl Pts',(39.9431020341148,19.9512982900289,80.203082888221));
#322=CARTESIAN_POINT('Ctrl Pts',(42.236100694225,14.4781751148101,81.3693509025265));
#323=CARTESIAN_POINT('Ctrl Pts',(43.1130544982747,11.6076921834089,81.8324686671779));
#324=CARTESIAN_POINT('Ctrl Pts',(44.270211225338,5.7984811891759,82.4479779128199));
#325=CARTESIAN_POINT('Ctrl Pts',(44.55,2.85963150584048,82.6));
#326=CARTESIAN_POINT('Ctrl Pts',(44.55,-2.85963150584046,82.6));
#327=CARTESIAN_POINT('Ctrl Pts',(44.270211225338,-5.79848118917588,82.4479779128199));
#328=CARTESIAN_POINT('Ctrl Pts',(43.1130544982747,-11.6076921834089,81.8324686671779));
#329=CARTESIAN_POINT('Ctrl Pts',(42.236100694225,-14.47817511481,81.3693509025265));
#330=CARTESIAN_POINT('Ctrl Pts',(39.9431020341148,-19.9512982900289,80.203082888221));
#331=CARTESIAN_POINT('Ctrl Pts',(38.5252180408402,-22.5592896478756,79.4996175838646));
#332=CARTESIAN_POINT('Ctrl Pts',(35.2751713360466,-27.3637764420581,77.9764995646736));
#333=CARTESIAN_POINT('Ctrl Pts',(33.4427608040753,-29.5604533996461,77.1579484529036));
#334=CARTESIAN_POINT('Ctrl Pts',(29.5529108660301,-33.4503033376912,75.5531664076746));
#335=CARTESIAN_POINT('Ctrl Pts',(27.3524379045851,-35.2838500925775,74.7067827081317));
#336=CARTESIAN_POINT('Ctrl Pts',(22.5493091479373,-38.530956288704,73.0850112416473));
#337=CARTESIAN_POINT('Ctrl Pts',(19.9465200039112,-39.9450474271084,72.3110833454085));
#338=CARTESIAN_POINT('Ctrl Pts',(14.4844846288684,-42.2335137673082,70.9988049388213));
#339=CARTESIAN_POINT('Ctrl Pts',(11.6197866409447,-43.1097219739776,70.4611789075447));
#340=CARTESIAN_POINT('Ctrl Pts',(5.8130543012176,-44.2682275137808,69.7391561252744));
#341=CARTESIAN_POINT('Ctrl Pts',(2.8707428705601,-44.55,69.5561463854921));
#342=CARTESIAN_POINT('Ctrl Pts',(5.55111512312578E-16,-44.55,69.5561463854921));
#343=CARTESIAN_POINT('Origin',(0.,0.,89.));
#344=CARTESIAN_POINT('Origin',(-170.,0.,0.));
#345=CARTESIAN_POINT('',(-170.,-82.6,-1.01155825609571E-14));
#346=CARTESIAN_POINT('Origin',(-170.,0.,0.));
#347=CARTESIAN_POINT('Origin',(0.,0.,0.));
#348=CARTESIAN_POINT('',(170.,-82.6,-1.01155825609571E-14));
#349=CARTESIAN_POINT('Origin',(170.,0.,0.));
#350=CARTESIAN_POINT('',(0.,-82.6,-1.01155825609571E-14));
#351=CARTESIAN_POINT('Origin',(170.,0.,0.));
#352=UNCERTAINTY_MEASURE_WITH_UNIT(LENGTH_MEASURE(0.01),#356,
'DISTANCE_ACCURACY_VALUE',
'Maximum model space distance between geometric entities at asserted c
onnectivities');
#353=UNCERTAINTY_MEASURE_WITH_UNIT(LENGTH_MEASURE(0.01),#356,
'DISTANCE_ACCURACY_VALUE',
'Maximum model space distance between geometric entities at asserted c
onnectivities');
#354=(
GEOMETRIC_REPRESENTATION_CONTEXT(3)
GLOBAL_UNCERTAINTY_ASSIGNED_CONTEXT((#352))
GLOBAL_UNIT_ASSIGNED_CONTEXT((#356,#358,#359))
REPRESENTATION_CONTEXT('','3D')
);
#355=(
GEOMETRIC_REPRESENTATION_CONTEXT(3)
GLOBAL_UNCERTAINTY_ASSIGNED_CONTEXT((#353))
GLOBAL_UNIT_ASSIGNED_CONTEXT((#356,#358,#359))
REPRESENTATION_CONTEXT('','3D')
);
#356=(
LENGTH_UNIT()
NAMED_UNIT(*)
SI_UNIT(.MILLI.,.METRE.)
);
#357=(
LENGTH_UNIT()
NAMED_UNIT(*)
SI_UNIT(.CENTI.,.METRE.)
);
#358=(
NAMED_UNIT(*)
PLANE_ANGLE_UNIT()
SI_UNIT($,.RADIAN.)
);
#359=(
NAMED_UNIT(*)
SI_UNIT($,.STERADIAN.)
SOLID_ANGLE_UNIT()
);
#360=SHAPE_DEFINITION_REPRESENTATION(#361,#362);
#361=PRODUCT_DEFINITION_SHAPE('',$,#364);
#362=SHAPE_REPRESENTATION('',(#142),#354);
#363=PRODUCT_DEFINITION_CONTEXT('part definition',#368,'design');
#364=PRODUCT_DEFINITION('T-8 60\X\D735','T-8 60\X\D735',#365,#363);
#365=PRODUCT_DEFINITION_FORMATION('',$,#370);
#366=PRODUCT_RELATED_PRODUCT_CATEGORY('T-8 60\X\D735','T-8 60\X\D735',(#370));
#367=APPLICATION_PROTOCOL_DEFINITION('international standard',
'automotive_design',2009,#368);
#368=APPLICATION_CONTEXT(
'Core Data for Automotive Mechanical Design Process');
#369=PRODUCT_CONTEXT('part definition',#368,'mechanical');
#370=PRODUCT('T-8 60\X\D735','T-8 60\X\D735',$,(#369));
#371=PRESENTATION_STYLE_ASSIGNMENT((#372));
#372=SURFACE_STYLE_USAGE(.BOTH.,#375);
#373=SURFACE_STYLE_RENDERING_WITH_PROPERTIES($,#379,(#374));
#374=SURFACE_STYLE_TRANSPARENT(0.);
#375=SURFACE_SIDE_STYLE('',(#376,#373));
#376=SURFACE_STYLE_FILL_AREA(#377);
#377=FILL_AREA_STYLE('',(#378));
#378=FILL_AREA_STYLE_COLOUR('',#379);
#379=COLOUR_RGB('',0.749019607843137,0.749019607843137,0.749019607843137);
ENDSEC;
END-ISO-10303-21;
