ISO-10303-21;
HEADER;
/* Generated by software containing ST-Developer
 * from STEP Tools, Inc. (www.steptools.com) 
 */

FILE_DESCRIPTION(
/* description */ (''),
/* implementation_level */ '2;1');

FILE_NAME(
/* name */ 
'\\\\Tske00\\w\\Work\\TOSTE\\\X2\7D99624B\X0\\\02_\X2\6EB663A5\X0\\\\X2\6EB663A5752830C130FC30BA\X0\\\
T-8\\T-8 60\X\D730.stp',
/* time_stamp */ '2022-04-28T09:45:40+09:00',
/* author */ ('3dcad-eng'),
/* organization */ (''),
/* preprocessor_version */ 'ST-DEVELOPER v18.1',
/* originating_system */ 'Autodesk Inventor 2022',
/* authorisation */ '');

FILE_SCHEMA (('AUTOMOTIVE_DESIGN { 1 0 10303 214 3 1 1 }'));
ENDSEC;

DATA;
#10=MECHANICAL_DESIGN_GEOMETRIC_PRESENTATION_REPRESENTATION('',(#13),#355);
#11=SHAPE_REPRESENTATION_RELATIONSHIP('SRR','None',#362,#12);
#12=ADVANCED_BREP_SHAPE_REPRESENTATION('',(#14),#354);
#13=STYLED_ITEM('',(#371),#14);
#14=MANIFOLD_SOLID_BREP('\X2\30BD30EA30C330C9\X0\1',#123);
#15=PLANE('',#150);
#16=PLANE('',#151);
#17=PLANE('',#155);
#18=FACE_BOUND('',#32,.T.);
#19=FACE_BOUND('',#35,.T.);
#20=FACE_BOUND('',#37,.T.);
#21=FACE_BOUND('',#39,.T.);
#22=FACE_BOUND('',#41,.T.);
#23=FACE_OUTER_BOUND('',#30,.T.);
#24=FACE_OUTER_BOUND('',#31,.T.);
#25=FACE_OUTER_BOUND('',#33,.T.);
#26=FACE_OUTER_BOUND('',#34,.T.);
#27=FACE_OUTER_BOUND('',#36,.T.);
#28=FACE_OUTER_BOUND('',#38,.T.);
#29=FACE_OUTER_BOUND('',#40,.T.);
#30=EDGE_LOOP('',(#84,#85,#86,#87,#88));
#31=EDGE_LOOP('',(#89,#90,#91,#92));
#32=EDGE_LOOP('',(#93,#94));
#33=EDGE_LOOP('',(#95,#96,#97,#98,#99));
#34=EDGE_LOOP('',(#100));
#35=EDGE_LOOP('',(#101));
#36=EDGE_LOOP('',(#102));
#37=EDGE_LOOP('',(#103));
#38=EDGE_LOOP('',(#104,#105,#106,#107));
#39=EDGE_LOOP('',(#108,#109));
#40=EDGE_LOOP('',(#110));
#41=EDGE_LOOP('',(#111));
#42=CIRCLE('',#144,36.15);
#43=CIRCLE('',#146,79.6);
#44=CIRCLE('',#147,79.6);
#45=CIRCLE('',#149,38.15);
#46=CIRCLE('',#152,82.6);
#47=CIRCLE('',#154,82.6);
#48=LINE('',#261,#52);
#49=LINE('',#267,#53);
#50=LINE('',#273,#54);
#51=LINE('',#350,#55);
#52=VECTOR('',#160,36.15);
#53=VECTOR('',#167,79.6);
#54=VECTOR('',#174,38.15);
#55=VECTOR('',#185,82.6);
#56=B_SPLINE_CURVE_WITH_KNOTS('',3,(#192,#193,#194,#195,#196,#197,#198,
#199,#200,#201,#202,#203,#204,#205,#206,#207,#208,#209,#210,#211,#212,#213,
#214,#215,#216,#217,#218,#219,#220,#221,#222,#223,#224,#225,#226,#227,#228,
#229,#230,#231,#232,#233,#234,#235,#236,#237,#238,#239,#240,#241),
 .UNSPECIFIED.,.F.,.F.,(4,2,2,2,2,2,2,2,2,2,2,2,2,2,2,2,2,2,2,2,2,2,2,2,
4),(0.,0.692663975901015,1.38532795180203,2.07799192770304,2.77065590360406,
3.46209611491749,4.15353632623091,4.84497653754434,5.53641674885776,6.22785696017119,
6.91929717148462,7.61073738279804,8.30217759411147,8.99484157001248,9.6875055459135,
10.3801695218145,11.0728334977155,11.7654974736165,12.4581614495176,13.1508254254186,
13.8434894013196,14.534929612633,15.2263698239464,15.9178100352599,16.6092502465733),
 .UNSPECIFIED.);
#57=B_SPLINE_CURVE_WITH_KNOTS('',3,(#242,#243,#244,#245,#246,#247,#248,
#249,#250,#251,#252,#253,#254,#255,#256,#257,#258,#259),.UNSPECIFIED.,.F.,
 .F.,(4,2,2,2,2,2,2,2,4),(16.6092502465733,17.3006904578867,17.9921306692001,
18.6835708805136,19.375011091827,20.067675067728,20.760339043629,21.45300301953,
22.145666995431),.UNSPECIFIED.);
#58=B_SPLINE_CURVE_WITH_KNOTS('',3,(#275,#276,#277,#278,#279,#280,#281,
#282,#283,#284,#285,#286,#287,#288,#289,#290,#291,#292),.UNSPECIFIED.,.F.,
 .F.,(4,2,2,2,2,2,2,2,4),(0.,0.731492172750527,1.46298434550105,2.19447651825158,
2.92596869100211,3.65606757160555,4.38616645220898,5.11626533281242,5.84636421341586),
 .UNSPECIFIED.);
#59=B_SPLINE_CURVE_WITH_KNOTS('',3,(#293,#294,#295,#296,#297,#298,#299,
#300,#301,#302,#303,#304,#305,#306,#307,#308,#309,#310,#311,#312,#313,#314,
#315,#316,#317,#318,#319,#320,#321,#322,#323,#324,#325,#326,#327,#328,#329,
#330,#331,#332,#333,#334,#335,#336,#337,#338,#339,#340,#341,#342),
 .UNSPECIFIED.,.F.,.F.,(4,2,2,2,2,2,2,2,2,2,2,2,2,2,2,2,2,2,2,2,2,2,2,2,
4),(5.84636421341586,6.57646309401929,7.30656197462273,8.03666085522617,
8.76675973582961,9.49825190858013,10.2297440813307,10.9612362540812,11.6927284268317,
12.4242205995822,13.1557127723328,13.8872049450833,14.6186971178338,15.3487959984373,
16.0788948790407,16.8089937596441,17.5390926402476,18.269191520851,18.9992904014544,
19.7293892820579,20.4594881626613,21.1909803354118,21.9224725081624,22.6539646809129,
23.3854568536634),.UNSPECIFIED.);
#60=VERTEX_POINT('',#190);
#61=VERTEX_POINT('',#191);
#62=VERTEX_POINT('',#260);
#63=VERTEX_POINT('',#264);
#64=VERTEX_POINT('',#266);
#65=VERTEX_POINT('',#270);
#66=VERTEX_POINT('',#272);
#67=VERTEX_POINT('',#274);
#68=VERTEX_POINT('',#345);
#69=VERTEX_POINT('',#348);
#70=EDGE_CURVE('',#60,#61,#56,.T.);
#71=EDGE_CURVE('',#61,#60,#57,.T.);
#72=EDGE_CURVE('',#61,#62,#48,.T.);
#73=EDGE_CURVE('',#62,#62,#42,.T.);
#74=EDGE_CURVE('',#63,#63,#43,.T.);
#75=EDGE_CURVE('',#63,#64,#49,.T.);
#76=EDGE_CURVE('',#64,#64,#44,.T.);
#77=EDGE_CURVE('',#65,#65,#45,.T.);
#78=EDGE_CURVE('',#65,#66,#50,.T.);
#79=EDGE_CURVE('',#67,#66,#58,.T.);
#80=EDGE_CURVE('',#66,#67,#59,.T.);
#81=EDGE_CURVE('',#68,#68,#46,.T.);
#82=EDGE_CURVE('',#69,#69,#47,.T.);
#83=EDGE_CURVE('',#69,#68,#51,.T.);
#84=ORIENTED_EDGE('',*,*,#70,.F.);
#85=ORIENTED_EDGE('',*,*,#71,.F.);
#86=ORIENTED_EDGE('',*,*,#72,.T.);
#87=ORIENTED_EDGE('',*,*,#73,.F.);
#88=ORIENTED_EDGE('',*,*,#72,.F.);
#89=ORIENTED_EDGE('',*,*,#74,.F.);
#90=ORIENTED_EDGE('',*,*,#75,.T.);
#91=ORIENTED_EDGE('',*,*,#76,.F.);
#92=ORIENTED_EDGE('',*,*,#75,.F.);
#93=ORIENTED_EDGE('',*,*,#70,.T.);
#94=ORIENTED_EDGE('',*,*,#71,.T.);
#95=ORIENTED_EDGE('',*,*,#77,.F.);
#96=ORIENTED_EDGE('',*,*,#78,.T.);
#97=ORIENTED_EDGE('',*,*,#79,.F.);
#98=ORIENTED_EDGE('',*,*,#80,.F.);
#99=ORIENTED_EDGE('',*,*,#78,.F.);
#100=ORIENTED_EDGE('',*,*,#77,.T.);
#101=ORIENTED_EDGE('',*,*,#73,.T.);
#102=ORIENTED_EDGE('',*,*,#81,.T.);
#103=ORIENTED_EDGE('',*,*,#74,.T.);
#104=ORIENTED_EDGE('',*,*,#82,.F.);
#105=ORIENTED_EDGE('',*,*,#83,.T.);
#106=ORIENTED_EDGE('',*,*,#81,.F.);
#107=ORIENTED_EDGE('',*,*,#83,.F.);
#108=ORIENTED_EDGE('',*,*,#79,.T.);
#109=ORIENTED_EDGE('',*,*,#80,.T.);
#110=ORIENTED_EDGE('',*,*,#82,.T.);
#111=ORIENTED_EDGE('',*,*,#76,.T.);
#112=CYLINDRICAL_SURFACE('',#143,36.15);
#113=CYLINDRICAL_SURFACE('',#145,79.6);
#114=CYLINDRICAL_SURFACE('',#148,38.15);
#115=CYLINDRICAL_SURFACE('',#153,82.6);
#116=ADVANCED_FACE('',(#23),#112,.F.);
#117=ADVANCED_FACE('',(#24,#18),#113,.F.);
#118=ADVANCED_FACE('',(#25),#114,.T.);
#119=ADVANCED_FACE('',(#26,#19),#15,.T.);
#120=ADVANCED_FACE('',(#27,#20),#16,.F.);
#121=ADVANCED_FACE('',(#28,#21),#115,.T.);
#122=ADVANCED_FACE('',(#29,#22),#17,.T.);
#123=CLOSED_SHELL('',(#116,#117,#118,#119,#120,#121,#122));
#124=DERIVED_UNIT_ELEMENT(#126,1.);
#125=DERIVED_UNIT_ELEMENT(#357,-3.);
#126=(
MASS_UNIT()
NAMED_UNIT(*)
SI_UNIT($,.GRAM.)
);
#127=DERIVED_UNIT((#124,#125));
#128=MEASURE_REPRESENTATION_ITEM('density measure',
POSITIVE_RATIO_MEASURE(1.),#127);
#129=PROPERTY_DEFINITION_REPRESENTATION(#134,#131);
#130=PROPERTY_DEFINITION_REPRESENTATION(#135,#132);
#131=REPRESENTATION('material name',(#133),#354);
#132=REPRESENTATION('density',(#128),#354);
#133=DESCRIPTIVE_REPRESENTATION_ITEM('\X2\4E00822C\X0\','\X2\4E00822C\X0\');
#134=PROPERTY_DEFINITION('material property','material name',#364);
#135=PROPERTY_DEFINITION('material property','density of part',#364);
#136=DATE_TIME_ROLE('creation_date');
#137=APPLIED_DATE_AND_TIME_ASSIGNMENT(#138,#136,(#364));
#138=DATE_AND_TIME(#139,#140);
#139=CALENDAR_DATE(2022,31,3);
#140=LOCAL_TIME(0,0,0.,#141);
#141=COORDINATED_UNIVERSAL_TIME_OFFSET(0,0,.BEHIND.);
#142=AXIS2_PLACEMENT_3D('placement',#188,#156,#157);
#143=AXIS2_PLACEMENT_3D('',#189,#158,#159);
#144=AXIS2_PLACEMENT_3D('',#262,#161,#162);
#145=AXIS2_PLACEMENT_3D('',#263,#163,#164);
#146=AXIS2_PLACEMENT_3D('',#265,#165,#166);
#147=AXIS2_PLACEMENT_3D('',#268,#168,#169);
#148=AXIS2_PLACEMENT_3D('',#269,#170,#171);
#149=AXIS2_PLACEMENT_3D('',#271,#172,#173);
#150=AXIS2_PLACEMENT_3D('',#343,#175,#176);
#151=AXIS2_PLACEMENT_3D('',#344,#177,#178);
#152=AXIS2_PLACEMENT_3D('',#346,#179,#180);
#153=AXIS2_PLACEMENT_3D('',#347,#181,#182);
#154=AXIS2_PLACEMENT_3D('',#349,#183,#184);
#155=AXIS2_PLACEMENT_3D('',#351,#186,#187);
#156=DIRECTION('axis',(0.,0.,1.));
#157=DIRECTION('refdir',(1.,0.,0.));
#158=DIRECTION('center_axis',(0.,0.,1.));
#159=DIRECTION('ref_axis',(1.,0.,0.));
#160=DIRECTION('',(0.,0.,1.));
#161=DIRECTION('center_axis',(0.,0.,-1.));
#162=DIRECTION('ref_axis',(1.,0.,0.));
#163=DIRECTION('center_axis',(1.,0.,0.));
#164=DIRECTION('ref_axis',(0.,1.,0.));
#165=DIRECTION('center_axis',(1.,0.,0.));
#166=DIRECTION('ref_axis',(0.,1.,0.));
#167=DIRECTION('',(1.,0.,0.));
#168=DIRECTION('center_axis',(-1.,0.,0.));
#169=DIRECTION('ref_axis',(0.,1.,0.));
#170=DIRECTION('center_axis',(0.,0.,1.));
#171=DIRECTION('ref_axis',(1.,0.,0.));
#172=DIRECTION('center_axis',(0.,0.,1.));
#173=DIRECTION('ref_axis',(1.,0.,0.));
#174=DIRECTION('',(0.,0.,-1.));
#175=DIRECTION('center_axis',(0.,0.,1.));
#176=DIRECTION('ref_axis',(1.,0.,0.));
#177=DIRECTION('center_axis',(1.,0.,0.));
#178=DIRECTION('ref_axis',(0.,0.,-1.));
#179=DIRECTION('center_axis',(-1.,0.,0.));
#180=DIRECTION('ref_axis',(0.,1.,0.));
#181=DIRECTION('center_axis',(1.,0.,0.));
#182=DIRECTION('ref_axis',(0.,1.,0.));
#183=DIRECTION('center_axis',(1.,0.,0.));
#184=DIRECTION('ref_axis',(0.,1.,0.));
#185=DIRECTION('',(-1.,0.,0.));
#186=DIRECTION('center_axis',(1.,0.,0.));
#187=DIRECTION('ref_axis',(0.,0.,-1.));
#188=CARTESIAN_POINT('',(0.,0.,0.));
#189=CARTESIAN_POINT('Origin',(0.,0.,0.));
#190=CARTESIAN_POINT('',(-5.55111512312578E-16,-36.15,70.9178221605825));
#191=CARTESIAN_POINT('',(-36.15,2.84452715947762E-16,79.6));
#192=CARTESIAN_POINT('Ctrl Pts',(5.55111512312578E-16,-36.15,70.9178221605825));
#193=CARTESIAN_POINT('Ctrl Pts',(2.30887991967005,-36.15,70.9178221605825));
#194=CARTESIAN_POINT('Ctrl Pts',(4.68335847455209,-35.9252851353965,71.0338285970685));
#195=CARTESIAN_POINT('Ctrl Pts',(9.38242377185463,-34.9932862672811,71.4975582277404));
#196=CARTESIAN_POINT('Ctrl Pts',(11.7071444857821,-34.2863464673423,71.8446153257238));
#197=CARTESIAN_POINT('Ctrl Pts',(16.1475201406084,-32.4325238659712,72.7002992906495));
#198=CARTESIAN_POINT('Ctrl Pts',(18.2673465328359,-31.2841698437138,73.2085570147592));
#199=CARTESIAN_POINT('Ctrl Pts',(22.1806936944693,-28.6428361032739,74.28176116996));
#200=CARTESIAN_POINT('Ctrl Pts',(23.9742846783608,-27.1495356014266,74.8456617881372));
#201=CARTESIAN_POINT('Ctrl Pts',(27.1467306629777,-23.9770896168097,75.9214042527138));
#202=CARTESIAN_POINT('Ctrl Pts',(28.6396518013364,-22.1848674740212,76.4727784982064));
#203=CARTESIAN_POINT('Ctrl Pts',(31.2821454057131,-18.2708888466464,77.5011536478643));
#204=CARTESIAN_POINT('Ctrl Pts',(32.4319241887426,-16.1490524883668,77.9773202246208));
#205=CARTESIAN_POINT('Ctrl Pts',(34.287393961386,-11.7045394807482,78.7671132153519));
#206=CARTESIAN_POINT('Ctrl Pts',(34.9945628546552,-9.37774324378356,79.0808662773788));
#207=CARTESIAN_POINT('Ctrl Pts',(35.9260157810979,-4.67791490409283,79.4974376422622));
#208=CARTESIAN_POINT('Ctrl Pts',(36.15,-2.30480070437809,79.6));
#209=CARTESIAN_POINT('Ctrl Pts',(36.15,2.30480070437809,79.6));
#210=CARTESIAN_POINT('Ctrl Pts',(35.9260157810979,4.67791490409283,79.4974376422622));
#211=CARTESIAN_POINT('Ctrl Pts',(34.9945628546552,9.37774324378355,79.0808662773788));
#212=CARTESIAN_POINT('Ctrl Pts',(34.287393961386,11.7045394807481,78.7671132153519));
#213=CARTESIAN_POINT('Ctrl Pts',(32.4319241887426,16.1490524883668,77.9773202246208));
#214=CARTESIAN_POINT('Ctrl Pts',(31.2821454057131,18.2708888466463,77.5011536478643));
#215=CARTESIAN_POINT('Ctrl Pts',(28.6396518013364,22.1848674740212,76.4727784982064));
#216=CARTESIAN_POINT('Ctrl Pts',(27.1467306629777,23.9770896168097,75.9214042527138));
#217=CARTESIAN_POINT('Ctrl Pts',(23.9742846783608,27.1495356014266,74.8456617881372));
#218=CARTESIAN_POINT('Ctrl Pts',(22.1806936944693,28.6428361032739,74.28176116996));
#219=CARTESIAN_POINT('Ctrl Pts',(18.2673465328359,31.2841698437138,73.2085570147592));
#220=CARTESIAN_POINT('Ctrl Pts',(16.1475201406084,32.4325238659712,72.7002992906495));
#221=CARTESIAN_POINT('Ctrl Pts',(11.7071444857821,34.2863464673423,71.8446153257238));
#222=CARTESIAN_POINT('Ctrl Pts',(9.38242377185463,34.9932862672811,71.4975582277404));
#223=CARTESIAN_POINT('Ctrl Pts',(4.68335847455209,35.9252851353965,71.0338285970685));
#224=CARTESIAN_POINT('Ctrl Pts',(2.30887991967005,36.15,70.9178221605825));
#225=CARTESIAN_POINT('Ctrl Pts',(-2.30887991967005,36.15,70.9178221605825));
#226=CARTESIAN_POINT('Ctrl Pts',(-4.68335847455209,35.9252851353965,71.0338285970685));
#227=CARTESIAN_POINT('Ctrl Pts',(-9.38242377185463,34.9932862672811,71.4975582277404));
#228=CARTESIAN_POINT('Ctrl Pts',(-11.7071444857821,34.2863464673423,71.8446153257238));
#229=CARTESIAN_POINT('Ctrl Pts',(-16.1475201406083,32.4325238659712,72.7002992906495));
#230=CARTESIAN_POINT('Ctrl Pts',(-18.2673465328359,31.2841698437138,73.2085570147592));
#231=CARTESIAN_POINT('Ctrl Pts',(-22.1806936944693,28.6428361032739,74.28176116996));
#232=CARTESIAN_POINT('Ctrl Pts',(-23.9742846783608,27.1495356014266,74.8456617881372));
#233=CARTESIAN_POINT('Ctrl Pts',(-27.1467306629777,23.9770896168097,75.9214042527138));
#234=CARTESIAN_POINT('Ctrl Pts',(-28.6396518013364,22.1848674740212,76.4727784982064));
#235=CARTESIAN_POINT('Ctrl Pts',(-31.2821454057131,18.2708888466464,77.5011536478643));
#236=CARTESIAN_POINT('Ctrl Pts',(-32.4319241887426,16.1490524883668,77.9773202246208));
#237=CARTESIAN_POINT('Ctrl Pts',(-34.287393961386,11.7045394807481,78.7671132153519));
#238=CARTESIAN_POINT('Ctrl Pts',(-34.9945628546552,9.37774324378356,79.0808662773788));
#239=CARTESIAN_POINT('Ctrl Pts',(-35.9260157810979,4.67791490409284,79.4974376422622));
#240=CARTESIAN_POINT('Ctrl Pts',(-36.15,2.30480070437808,79.6));
#241=CARTESIAN_POINT('Ctrl Pts',(-36.15,-3.33066907387547E-15,79.6));
#242=CARTESIAN_POINT('Ctrl Pts',(-36.15,4.9960036108132E-15,79.6));
#243=CARTESIAN_POINT('Ctrl Pts',(-36.15,-2.30480070437809,79.6));
#244=CARTESIAN_POINT('Ctrl Pts',(-35.9260157810979,-4.67791490409284,79.4974376422622));
#245=CARTESIAN_POINT('Ctrl Pts',(-34.9945628546552,-9.37774324378356,79.0808662773788));
#246=CARTESIAN_POINT('Ctrl Pts',(-34.287393961386,-11.7045394807481,78.7671132153519));
#247=CARTESIAN_POINT('Ctrl Pts',(-32.4319241887427,-16.1490524883668,77.9773202246209));
#248=CARTESIAN_POINT('Ctrl Pts',(-31.2821454057131,-18.2708888466463,77.5011536478643));
#249=CARTESIAN_POINT('Ctrl Pts',(-28.6396518013364,-22.1848674740212,76.4727784982063));
#250=CARTESIAN_POINT('Ctrl Pts',(-27.1467306629777,-23.9770896168097,75.9214042527138));
#251=CARTESIAN_POINT('Ctrl Pts',(-23.9742846783608,-27.1495356014266,74.8456617881372));
#252=CARTESIAN_POINT('Ctrl Pts',(-22.1806936944693,-28.6428361032739,74.28176116996));
#253=CARTESIAN_POINT('Ctrl Pts',(-18.2673465328359,-31.2841698437138,73.2085570147592));
#254=CARTESIAN_POINT('Ctrl Pts',(-16.1475201406084,-32.4325238659712,72.7002992906495));
#255=CARTESIAN_POINT('Ctrl Pts',(-11.7071444857821,-34.2863464673423,71.8446153257238));
#256=CARTESIAN_POINT('Ctrl Pts',(-9.38242377185463,-34.9932862672811,71.4975582277404));
#257=CARTESIAN_POINT('Ctrl Pts',(-4.68335847455208,-35.9252851353965,71.0338285970685));
#258=CARTESIAN_POINT('Ctrl Pts',(-2.30887991967004,-36.15,70.9178221605825));
#259=CARTESIAN_POINT('Ctrl Pts',(5.55111512312578E-16,-36.15,70.9178221605825));
#260=CARTESIAN_POINT('',(-36.15,4.42709817891768E-15,89.));
#261=CARTESIAN_POINT('',(-36.15,-4.42709817891768E-15,0.));
#262=CARTESIAN_POINT('Origin',(0.,0.,89.));
#263=CARTESIAN_POINT('Origin',(0.,0.,0.));
#264=CARTESIAN_POINT('',(-170.,-79.6,-9.74818852121293E-15));
#265=CARTESIAN_POINT('Origin',(-170.,0.,0.));
#266=CARTESIAN_POINT('',(170.,-79.6,9.74818852121293E-15));
#267=CARTESIAN_POINT('',(0.,-79.6,-9.74818852121293E-15));
#268=CARTESIAN_POINT('Origin',(170.,0.,0.));
#269=CARTESIAN_POINT('Origin',(0.,0.,0.));
#270=CARTESIAN_POINT('',(-38.15,-4.67202753874715E-15,89.));
#271=CARTESIAN_POINT('Origin',(0.,0.,89.));
#272=CARTESIAN_POINT('',(-38.15,-5.11157133093647E-15,82.6));
#273=CARTESIAN_POINT('',(-38.15,-4.67202753874715E-15,0.));
#274=CARTESIAN_POINT('',(1.11022302462516E-15,-38.15,73.2621150390841));
#275=CARTESIAN_POINT('Ctrl Pts',(1.11022302462516E-15,-38.15,73.2621150390841));
#276=CARTESIAN_POINT('Ctrl Pts',(-2.43830724250176,-38.15,73.2621150390841));
#277=CARTESIAN_POINT('Ctrl Pts',(-4.94525933478454,-37.9125297721724,73.3873614073347));
#278=CARTESIAN_POINT('Ctrl Pts',(-9.90542795893096,-36.9282818676293,73.887527535403));
#279=CARTESIAN_POINT('Ctrl Pts',(-12.3587921466287,-36.181874204128,74.261710763133));
#280=CARTESIAN_POINT('Ctrl Pts',(-17.0441908991292,-34.2251892768431,75.1835481512808));
#281=CARTESIAN_POINT('Ctrl Pts',(-19.2806507255746,-33.0133585913462,75.7307948535266));
#282=CARTESIAN_POINT('Ctrl Pts',(-23.4091398578976,-30.2264372648968,76.8856138975008));
#283=CARTESIAN_POINT('Ctrl Pts',(-25.3012479499312,-28.6509994546024,77.4920664563505));
#284=CARTESIAN_POINT('Ctrl Pts',(-28.6478092752403,-25.3044381292933,78.6484176165595));
#285=CARTESIAN_POINT('Ctrl Pts',(-30.22281178159,-23.4138906731975,79.2408823360566));
#286=CARTESIAN_POINT('Ctrl Pts',(-33.0110464819205,-19.2846944217477,80.3456798516468));
#287=CARTESIAN_POINT('Ctrl Pts',(-34.2244964674345,-17.0459550942133,80.8571244395641));
#288=CARTESIAN_POINT('Ctrl Pts',(-36.1830582325816,-12.3558516727912,81.705398175077));
#289=CARTESIAN_POINT('Ctrl Pts',(-36.9297306870287,-9.9001201387794,82.0423712265067));
#290=CARTESIAN_POINT('Ctrl Pts',(-37.9133614511745,-4.93906983885811,82.4898093364688));
#291=CARTESIAN_POINT('Ctrl Pts',(-38.15,-2.43366293534479,82.6));
#292=CARTESIAN_POINT('Ctrl Pts',(-38.15,-2.77555756156289E-15,82.6));
#293=CARTESIAN_POINT('Ctrl Pts',(-38.15,-4.9960036108132E-15,82.6));
#294=CARTESIAN_POINT('Ctrl Pts',(-38.15,2.43366293534479,82.6));
#295=CARTESIAN_POINT('Ctrl Pts',(-37.9133614511745,4.9390698388581,82.4898093364688));
#296=CARTESIAN_POINT('Ctrl Pts',(-36.9297306870287,9.9001201387794,82.0423712265067));
#297=CARTESIAN_POINT('Ctrl Pts',(-36.1830582325816,12.3558516727912,81.705398175077));
#298=CARTESIAN_POINT('Ctrl Pts',(-34.2244964674345,17.0459550942133,80.8571244395641));
#299=CARTESIAN_POINT('Ctrl Pts',(-33.0110464819205,19.2846944217477,80.3456798516468));
#300=CARTESIAN_POINT('Ctrl Pts',(-30.22281178159,23.4138906731975,79.2408823360566));
#301=CARTESIAN_POINT('Ctrl Pts',(-28.6478092752403,25.3044381292933,78.6484176165595));
#302=CARTESIAN_POINT('Ctrl Pts',(-25.3012479499312,28.6509994546024,77.4920664563505));
#303=CARTESIAN_POINT('Ctrl Pts',(-23.4091398578976,30.2264372648968,76.8856138975009));
#304=CARTESIAN_POINT('Ctrl Pts',(-19.2806507255746,33.0133585913462,75.7307948535267));
#305=CARTESIAN_POINT('Ctrl Pts',(-17.0441908991292,34.2251892768431,75.1835481512808));
#306=CARTESIAN_POINT('Ctrl Pts',(-12.3587921466287,36.181874204128,74.261710763133));
#307=CARTESIAN_POINT('Ctrl Pts',(-9.90542795893097,36.9282818676293,73.887527535403));
#308=CARTESIAN_POINT('Ctrl Pts',(-4.94525933478455,37.9125297721724,73.3873614073347));
#309=CARTESIAN_POINT('Ctrl Pts',(-2.43830724250176,38.15,73.2621150390841));
#310=CARTESIAN_POINT('Ctrl Pts',(2.43830724250175,38.15,73.2621150390841));
#311=CARTESIAN_POINT('Ctrl Pts',(4.94525933478454,37.9125297721724,73.3873614073347));
#312=CARTESIAN_POINT('Ctrl Pts',(9.90542795893095,36.9282818676293,73.887527535403));
#313=CARTESIAN_POINT('Ctrl Pts',(12.3587921466287,36.181874204128,74.261710763133));
#314=CARTESIAN_POINT('Ctrl Pts',(17.0441908991292,34.2251892768431,75.1835481512808));
#315=CARTESIAN_POINT('Ctrl Pts',(19.2806507255746,33.0133585913462,75.7307948535267));
#316=CARTESIAN_POINT('Ctrl Pts',(23.4091398578976,30.2264372648968,76.8856138975009));
#317=CARTESIAN_POINT('Ctrl Pts',(25.3012479499312,28.6509994546024,77.4920664563505));
#318=CARTESIAN_POINT('Ctrl Pts',(28.6478092752403,25.3044381292933,78.6484176165595));
#319=CARTESIAN_POINT('Ctrl Pts',(30.22281178159,23.4138906731975,79.2408823360565));
#320=CARTESIAN_POINT('Ctrl Pts',(33.0110464819205,19.2846944217477,80.3456798516468));
#321=CARTESIAN_POINT('Ctrl Pts',(34.2244964674345,17.0459550942134,80.8571244395641));
#322=CARTESIAN_POINT('Ctrl Pts',(36.1830582325816,12.3558516727912,81.705398175077));
#323=CARTESIAN_POINT('Ctrl Pts',(36.9297306870287,9.90012013877941,82.0423712265067));
#324=CARTESIAN_POINT('Ctrl Pts',(37.9133614511745,4.93906983885811,82.4898093364688));
#325=CARTESIAN_POINT('Ctrl Pts',(38.15,2.4336629353448,82.6));
#326=CARTESIAN_POINT('Ctrl Pts',(38.15,-2.43366293534478,82.6));
#327=CARTESIAN_POINT('Ctrl Pts',(37.9133614511745,-4.93906983885808,82.4898093364688));
#328=CARTESIAN_POINT('Ctrl Pts',(36.9297306870287,-9.90012013877937,82.0423712265067));
#329=CARTESIAN_POINT('Ctrl Pts',(36.1830582325816,-12.3558516727912,81.705398175077));
#330=CARTESIAN_POINT('Ctrl Pts',(34.2244964674345,-17.0459550942133,80.8571244395641));
#331=CARTESIAN_POINT('Ctrl Pts',(33.0110464819205,-19.2846944217477,80.3456798516468));
#332=CARTESIAN_POINT('Ctrl Pts',(30.22281178159,-23.4138906731975,79.2408823360566));
#333=CARTESIAN_POINT('Ctrl Pts',(28.6478092752403,-25.3044381292933,78.6484176165595));
#334=CARTESIAN_POINT('Ctrl Pts',(25.3012479499312,-28.6509994546024,77.4920664563505));
#335=CARTESIAN_POINT('Ctrl Pts',(23.4091398578976,-30.2264372648968,76.8856138975008));
#336=CARTESIAN_POINT('Ctrl Pts',(19.2806507255746,-33.0133585913462,75.7307948535266));
#337=CARTESIAN_POINT('Ctrl Pts',(17.0441908991292,-34.2251892768431,75.1835481512808));
#338=CARTESIAN_POINT('Ctrl Pts',(12.3587921466287,-36.1818742041281,74.261710763133));
#339=CARTESIAN_POINT('Ctrl Pts',(9.90542795893094,-36.9282818676293,73.887527535403));
#340=CARTESIAN_POINT('Ctrl Pts',(4.94525933478452,-37.9125297721724,73.3873614073347));
#341=CARTESIAN_POINT('Ctrl Pts',(2.43830724250175,-38.15,73.2621150390842));
#342=CARTESIAN_POINT('Ctrl Pts',(-5.55111512312578E-16,-38.15,73.2621150390842));
#343=CARTESIAN_POINT('Origin',(0.,0.,89.));
#344=CARTESIAN_POINT('Origin',(-170.,0.,0.));
#345=CARTESIAN_POINT('',(-170.,-82.6,-1.01155825609571E-14));
#346=CARTESIAN_POINT('Origin',(-170.,0.,0.));
#347=CARTESIAN_POINT('Origin',(0.,0.,0.));
#348=CARTESIAN_POINT('',(170.,-82.6,-1.01155825609571E-14));
#349=CARTESIAN_POINT('Origin',(170.,0.,0.));
#350=CARTESIAN_POINT('',(0.,-82.6,-1.01155825609571E-14));
#351=CARTESIAN_POINT('Origin',(170.,0.,0.));
#352=UNCERTAINTY_MEASURE_WITH_UNIT(LENGTH_MEASURE(0.01),#356,
'DISTANCE_ACCURACY_VALUE',
'Maximum model space distance between geometric entities at asserted c
onnectivities');
#353=UNCERTAINTY_MEASURE_WITH_UNIT(LENGTH_MEASURE(0.01),#356,
'DISTANCE_ACCURACY_VALUE',
'Maximum model space distance between geometric entities at asserted c
onnectivities');
#354=(
GEOMETRIC_REPRESENTATION_CONTEXT(3)
GLOBAL_UNCERTAINTY_ASSIGNED_CONTEXT((#352))
GLOBAL_UNIT_ASSIGNED_CONTEXT((#356,#358,#359))
REPRESENTATION_CONTEXT('','3D')
);
#355=(
GEOMETRIC_REPRESENTATION_CONTEXT(3)
GLOBAL_UNCERTAINTY_ASSIGNED_CONTEXT((#353))
GLOBAL_UNIT_ASSIGNED_CONTEXT((#356,#358,#359))
REPRESENTATION_CONTEXT('','3D')
);
#356=(
LENGTH_UNIT()
NAMED_UNIT(*)
SI_UNIT(.MILLI.,.METRE.)
);
#357=(
LENGTH_UNIT()
NAMED_UNIT(*)
SI_UNIT(.CENTI.,.METRE.)
);
#358=(
NAMED_UNIT(*)
PLANE_ANGLE_UNIT()
SI_UNIT($,.RADIAN.)
);
#359=(
NAMED_UNIT(*)
SI_UNIT($,.STERADIAN.)
SOLID_ANGLE_UNIT()
);
#360=SHAPE_DEFINITION_REPRESENTATION(#361,#362);
#361=PRODUCT_DEFINITION_SHAPE('',$,#364);
#362=SHAPE_REPRESENTATION('',(#142),#354);
#363=PRODUCT_DEFINITION_CONTEXT('part definition',#368,'design');
#364=PRODUCT_DEFINITION('T-8 60\X\D730','T-8 60\X\D730',#365,#363);
#365=PRODUCT_DEFINITION_FORMATION('',$,#370);
#366=PRODUCT_RELATED_PRODUCT_CATEGORY('T-8 60\X\D730','T-8 60\X\D730',(#370));
#367=APPLICATION_PROTOCOL_DEFINITION('international standard',
'automotive_design',2009,#368);
#368=APPLICATION_CONTEXT(
'Core Data for Automotive Mechanical Design Process');
#369=PRODUCT_CONTEXT('part definition',#368,'mechanical');
#370=PRODUCT('T-8 60\X\D730','T-8 60\X\D730',$,(#369));
#371=PRESENTATION_STYLE_ASSIGNMENT((#372));
#372=SURFACE_STYLE_USAGE(.BOTH.,#375);
#373=SURFACE_STYLE_RENDERING_WITH_PROPERTIES($,#379,(#374));
#374=SURFACE_STYLE_TRANSPARENT(0.);
#375=SURFACE_SIDE_STYLE('',(#376,#373));
#376=SURFACE_STYLE_FILL_AREA(#377);
#377=FILL_AREA_STYLE('',(#378));
#378=FILL_AREA_STYLE_COLOUR('',#379);
#379=COLOUR_RGB('',0.749019607843137,0.749019607843137,0.749019607843137);
ENDSEC;
END-ISO-10303-21;
