ISO-10303-21;
HEADER;
/* Generated by software containing ST-Developer
 * from STEP Tools, Inc. (www.steptools.com) 
 */

FILE_DESCRIPTION(
/* description */ (''),
/* implementation_level */ '2;1');

FILE_NAME(
/* name */ 
'\\\\Tske00\\w\\Work\\TOSTE\\\X2\7D99624B\X0\\\02_\X2\6EB663A5\X0\\\\X2\6EB663A5752830C130FC30BA\X0\\\
T-8\\T-8 60\X\D725.stp',
/* time_stamp */ '2022-04-28T09:45:39+09:00',
/* author */ ('3dcad-eng'),
/* organization */ (''),
/* preprocessor_version */ 'ST-DEVELOPER v18.1',
/* originating_system */ 'Autodesk Inventor 2022',
/* authorisation */ '');

FILE_SCHEMA (('AUTOMOTIVE_DESIGN { 1 0 10303 214 3 1 1 }'));
ENDSEC;

DATA;
#10=MECHANICAL_DESIGN_GEOMETRIC_PRESENTATION_REPRESENTATION('',(#13),#355);
#11=SHAPE_REPRESENTATION_RELATIONSHIP('SRR','None',#362,#12);
#12=ADVANCED_BREP_SHAPE_REPRESENTATION('',(#14),#354);
#13=STYLED_ITEM('',(#371),#14);
#14=MANIFOLD_SOLID_BREP('\X2\30BD30EA30C330C9\X0\1',#123);
#15=PLANE('',#150);
#16=PLANE('',#151);
#17=PLANE('',#155);
#18=FACE_BOUND('',#32,.T.);
#19=FACE_BOUND('',#35,.T.);
#20=FACE_BOUND('',#37,.T.);
#21=FACE_BOUND('',#39,.T.);
#22=FACE_BOUND('',#41,.T.);
#23=FACE_OUTER_BOUND('',#30,.T.);
#24=FACE_OUTER_BOUND('',#31,.T.);
#25=FACE_OUTER_BOUND('',#33,.T.);
#26=FACE_OUTER_BOUND('',#34,.T.);
#27=FACE_OUTER_BOUND('',#36,.T.);
#28=FACE_OUTER_BOUND('',#38,.T.);
#29=FACE_OUTER_BOUND('',#40,.T.);
#30=EDGE_LOOP('',(#84,#85,#86,#87,#88));
#31=EDGE_LOOP('',(#89,#90,#91,#92));
#32=EDGE_LOOP('',(#93,#94));
#33=EDGE_LOOP('',(#95,#96,#97,#98,#99));
#34=EDGE_LOOP('',(#100));
#35=EDGE_LOOP('',(#101));
#36=EDGE_LOOP('',(#102));
#37=EDGE_LOOP('',(#103));
#38=EDGE_LOOP('',(#104,#105,#106,#107));
#39=EDGE_LOOP('',(#108,#109));
#40=EDGE_LOOP('',(#110));
#41=EDGE_LOOP('',(#111));
#42=CIRCLE('',#144,29.75);
#43=CIRCLE('',#146,79.6);
#44=CIRCLE('',#147,79.6);
#45=CIRCLE('',#149,31.75);
#46=CIRCLE('',#152,82.6);
#47=CIRCLE('',#154,82.6);
#48=LINE('',#261,#52);
#49=LINE('',#267,#53);
#50=LINE('',#273,#54);
#51=LINE('',#350,#55);
#52=VECTOR('',#160,29.75);
#53=VECTOR('',#167,79.6);
#54=VECTOR('',#174,31.75);
#55=VECTOR('',#185,82.6);
#56=B_SPLINE_CURVE_WITH_KNOTS('',3,(#192,#193,#194,#195,#196,#197,#198,
#199,#200,#201,#202,#203,#204,#205,#206,#207,#208,#209,#210,#211,#212,#213,
#214,#215,#216,#217,#218,#219,#220,#221,#222,#223,#224,#225,#226,#227,#228,
#229,#230,#231,#232,#233,#234,#235,#236,#237,#238,#239,#240,#241),
 .UNSPECIFIED.,.F.,.F.,(4,2,2,2,2,2,2,2,2,2,2,2,2,2,2,2,2,2,2,2,2,2,2,2,
4),(0.,0.566542556274447,1.13308511254889,1.69962766882334,2.26617022509779,
2.83228514325442,3.39840006141106,3.96451497956769,4.53062989772432,5.09674481588096,
5.66285973403759,6.22897465219423,6.79508957035086,7.36163212662531,7.92817468289975,
8.4947172391742,9.06125979544865,9.6278023517231,10.1943449079975,10.760887464272,
11.3274300205464,11.8935449387031,12.4596598568597,13.0257747750163,13.591889693173),
 .UNSPECIFIED.);
#57=B_SPLINE_CURVE_WITH_KNOTS('',3,(#242,#243,#244,#245,#246,#247,#248,
#249,#250,#251,#252,#253,#254,#255,#256,#257,#258,#259),.UNSPECIFIED.,.F.,
 .F.,(4,2,2,2,2,2,2,2,4),(13.591889693173,14.1580046113296,14.7241195294862,
15.2902344476429,15.8563493657995,16.422891922074,16.9894344783484,17.5559770346228,
18.1225195908973),.UNSPECIFIED.);
#58=B_SPLINE_CURVE_WITH_KNOTS('',3,(#275,#276,#277,#278,#279,#280,#281,
#282,#283,#284,#285,#286,#287,#288,#289,#290,#291,#292),.UNSPECIFIED.,.F.,
 .F.,(4,2,2,2,2,2,2,2,4),(0.,0.605059128094099,1.2101182561882,1.8151773842823,
2.42023651237639,3.02478035471167,3.62932419704694,4.23386803938221,4.83841188171748),
 .UNSPECIFIED.);
#59=B_SPLINE_CURVE_WITH_KNOTS('',3,(#293,#294,#295,#296,#297,#298,#299,
#300,#301,#302,#303,#304,#305,#306,#307,#308,#309,#310,#311,#312,#313,#314,
#315,#316,#317,#318,#319,#320,#321,#322,#323,#324,#325,#326,#327,#328,#329,
#330,#331,#332,#333,#334,#335,#336,#337,#338,#339,#340,#341,#342),
 .UNSPECIFIED.,.F.,.F.,(4,2,2,2,2,2,2,2,2,2,2,2,2,2,2,2,2,2,2,2,2,2,2,2,
4),(4.83841188171748,5.44295572405276,6.04749956638803,6.6520434087233,
7.25658725105858,7.86164637915268,8.46670550724678,9.07176463534087,9.67682376343497,
10.2818828915291,10.8869420196232,11.4920011477173,12.0970602758114,12.7016041181466,
13.3061479604819,13.9106918028172,14.5152356451525,15.1197794874877,15.724323329823,
16.3288671721583,16.9334110144936,17.5384701425876,18.1435292706817,18.7485883987758,
19.3536475268699),.UNSPECIFIED.);
#60=VERTEX_POINT('',#190);
#61=VERTEX_POINT('',#191);
#62=VERTEX_POINT('',#260);
#63=VERTEX_POINT('',#264);
#64=VERTEX_POINT('',#266);
#65=VERTEX_POINT('',#270);
#66=VERTEX_POINT('',#272);
#67=VERTEX_POINT('',#274);
#68=VERTEX_POINT('',#345);
#69=VERTEX_POINT('',#348);
#70=EDGE_CURVE('',#60,#61,#56,.T.);
#71=EDGE_CURVE('',#61,#60,#57,.T.);
#72=EDGE_CURVE('',#61,#62,#48,.T.);
#73=EDGE_CURVE('',#62,#62,#42,.T.);
#74=EDGE_CURVE('',#63,#63,#43,.T.);
#75=EDGE_CURVE('',#63,#64,#49,.T.);
#76=EDGE_CURVE('',#64,#64,#44,.T.);
#77=EDGE_CURVE('',#65,#65,#45,.T.);
#78=EDGE_CURVE('',#65,#66,#50,.T.);
#79=EDGE_CURVE('',#67,#66,#58,.T.);
#80=EDGE_CURVE('',#66,#67,#59,.T.);
#81=EDGE_CURVE('',#68,#68,#46,.T.);
#82=EDGE_CURVE('',#69,#69,#47,.T.);
#83=EDGE_CURVE('',#69,#68,#51,.T.);
#84=ORIENTED_EDGE('',*,*,#70,.F.);
#85=ORIENTED_EDGE('',*,*,#71,.F.);
#86=ORIENTED_EDGE('',*,*,#72,.T.);
#87=ORIENTED_EDGE('',*,*,#73,.F.);
#88=ORIENTED_EDGE('',*,*,#72,.F.);
#89=ORIENTED_EDGE('',*,*,#74,.F.);
#90=ORIENTED_EDGE('',*,*,#75,.T.);
#91=ORIENTED_EDGE('',*,*,#76,.F.);
#92=ORIENTED_EDGE('',*,*,#75,.F.);
#93=ORIENTED_EDGE('',*,*,#70,.T.);
#94=ORIENTED_EDGE('',*,*,#71,.T.);
#95=ORIENTED_EDGE('',*,*,#77,.F.);
#96=ORIENTED_EDGE('',*,*,#78,.T.);
#97=ORIENTED_EDGE('',*,*,#79,.F.);
#98=ORIENTED_EDGE('',*,*,#80,.F.);
#99=ORIENTED_EDGE('',*,*,#78,.F.);
#100=ORIENTED_EDGE('',*,*,#77,.T.);
#101=ORIENTED_EDGE('',*,*,#73,.T.);
#102=ORIENTED_EDGE('',*,*,#81,.T.);
#103=ORIENTED_EDGE('',*,*,#74,.T.);
#104=ORIENTED_EDGE('',*,*,#82,.F.);
#105=ORIENTED_EDGE('',*,*,#83,.T.);
#106=ORIENTED_EDGE('',*,*,#81,.F.);
#107=ORIENTED_EDGE('',*,*,#83,.F.);
#108=ORIENTED_EDGE('',*,*,#79,.T.);
#109=ORIENTED_EDGE('',*,*,#80,.T.);
#110=ORIENTED_EDGE('',*,*,#82,.T.);
#111=ORIENTED_EDGE('',*,*,#76,.T.);
#112=CYLINDRICAL_SURFACE('',#143,29.75);
#113=CYLINDRICAL_SURFACE('',#145,79.6);
#114=CYLINDRICAL_SURFACE('',#148,31.75);
#115=CYLINDRICAL_SURFACE('',#153,82.6);
#116=ADVANCED_FACE('',(#23),#112,.F.);
#117=ADVANCED_FACE('',(#24,#18),#113,.F.);
#118=ADVANCED_FACE('',(#25),#114,.T.);
#119=ADVANCED_FACE('',(#26,#19),#15,.T.);
#120=ADVANCED_FACE('',(#27,#20),#16,.F.);
#121=ADVANCED_FACE('',(#28,#21),#115,.T.);
#122=ADVANCED_FACE('',(#29,#22),#17,.T.);
#123=CLOSED_SHELL('',(#116,#117,#118,#119,#120,#121,#122));
#124=DERIVED_UNIT_ELEMENT(#126,1.);
#125=DERIVED_UNIT_ELEMENT(#357,-3.);
#126=(
MASS_UNIT()
NAMED_UNIT(*)
SI_UNIT($,.GRAM.)
);
#127=DERIVED_UNIT((#124,#125));
#128=MEASURE_REPRESENTATION_ITEM('density measure',
POSITIVE_RATIO_MEASURE(1.),#127);
#129=PROPERTY_DEFINITION_REPRESENTATION(#134,#131);
#130=PROPERTY_DEFINITION_REPRESENTATION(#135,#132);
#131=REPRESENTATION('material name',(#133),#354);
#132=REPRESENTATION('density',(#128),#354);
#133=DESCRIPTIVE_REPRESENTATION_ITEM('\X2\4E00822C\X0\','\X2\4E00822C\X0\');
#134=PROPERTY_DEFINITION('material property','material name',#364);
#135=PROPERTY_DEFINITION('material property','density of part',#364);
#136=DATE_TIME_ROLE('creation_date');
#137=APPLIED_DATE_AND_TIME_ASSIGNMENT(#138,#136,(#364));
#138=DATE_AND_TIME(#139,#140);
#139=CALENDAR_DATE(2022,31,3);
#140=LOCAL_TIME(0,0,0.,#141);
#141=COORDINATED_UNIVERSAL_TIME_OFFSET(0,0,.BEHIND.);
#142=AXIS2_PLACEMENT_3D('placement',#188,#156,#157);
#143=AXIS2_PLACEMENT_3D('',#189,#158,#159);
#144=AXIS2_PLACEMENT_3D('',#262,#161,#162);
#145=AXIS2_PLACEMENT_3D('',#263,#163,#164);
#146=AXIS2_PLACEMENT_3D('',#265,#165,#166);
#147=AXIS2_PLACEMENT_3D('',#268,#168,#169);
#148=AXIS2_PLACEMENT_3D('',#269,#170,#171);
#149=AXIS2_PLACEMENT_3D('',#271,#172,#173);
#150=AXIS2_PLACEMENT_3D('',#343,#175,#176);
#151=AXIS2_PLACEMENT_3D('',#344,#177,#178);
#152=AXIS2_PLACEMENT_3D('',#346,#179,#180);
#153=AXIS2_PLACEMENT_3D('',#347,#181,#182);
#154=AXIS2_PLACEMENT_3D('',#349,#183,#184);
#155=AXIS2_PLACEMENT_3D('',#351,#186,#187);
#156=DIRECTION('axis',(0.,0.,1.));
#157=DIRECTION('refdir',(1.,0.,0.));
#158=DIRECTION('center_axis',(0.,0.,1.));
#159=DIRECTION('ref_axis',(1.,0.,0.));
#160=DIRECTION('',(0.,0.,1.));
#161=DIRECTION('center_axis',(0.,0.,-1.));
#162=DIRECTION('ref_axis',(1.,0.,0.));
#163=DIRECTION('center_axis',(1.,0.,0.));
#164=DIRECTION('ref_axis',(0.,1.,0.));
#165=DIRECTION('center_axis',(1.,0.,0.));
#166=DIRECTION('ref_axis',(0.,1.,0.));
#167=DIRECTION('',(1.,0.,0.));
#168=DIRECTION('center_axis',(-1.,0.,0.));
#169=DIRECTION('ref_axis',(0.,1.,0.));
#170=DIRECTION('center_axis',(0.,0.,1.));
#171=DIRECTION('ref_axis',(1.,0.,0.));
#172=DIRECTION('center_axis',(0.,0.,1.));
#173=DIRECTION('ref_axis',(1.,0.,0.));
#174=DIRECTION('',(0.,0.,-1.));
#175=DIRECTION('center_axis',(0.,0.,1.));
#176=DIRECTION('ref_axis',(1.,0.,0.));
#177=DIRECTION('center_axis',(1.,0.,0.));
#178=DIRECTION('ref_axis',(0.,0.,-1.));
#179=DIRECTION('center_axis',(-1.,0.,0.));
#180=DIRECTION('ref_axis',(0.,1.,0.));
#181=DIRECTION('center_axis',(1.,0.,0.));
#182=DIRECTION('ref_axis',(0.,1.,0.));
#183=DIRECTION('center_axis',(1.,0.,0.));
#184=DIRECTION('ref_axis',(0.,1.,0.));
#185=DIRECTION('',(-1.,0.,0.));
#186=DIRECTION('center_axis',(1.,0.,0.));
#187=DIRECTION('ref_axis',(0.,0.,-1.));
#188=CARTESIAN_POINT('',(0.,0.,0.));
#189=CARTESIAN_POINT('Origin',(0.,0.,0.));
#190=CARTESIAN_POINT('',(0.,-29.75,73.8315481349267));
#191=CARTESIAN_POINT('',(-29.75,-1.56327576793953E-16,79.6));
#192=CARTESIAN_POINT('Ctrl Pts',(5.55111512312578E-16,-29.75,73.8315481349267));
#193=CARTESIAN_POINT('Ctrl Pts',(1.88847518758149,-29.75,73.8315481349267));
#194=CARTESIAN_POINT('Ctrl Pts',(3.83476256995431,-29.5672983711352,73.9060392139949));
#195=CARTESIAN_POINT('Ctrl Pts',(7.69368802826448,-28.8051679704922,74.2064017664831));
#196=CARTESIAN_POINT('Ctrl Pts',(9.6063993178772,-28.2259763033987,74.4319340978372));
#197=CARTESIAN_POINT('Ctrl Pts',(13.2648558101265,-26.702665486385,74.9919070759598));
#198=CARTESIAN_POINT('Ctrl Pts',(15.0138639544458,-25.7573386308626,75.326163188624));
#199=CARTESIAN_POINT('Ctrl Pts',(18.2441553829411,-23.5798091358456,76.0359385748161));
#200=CARTESIAN_POINT('Ctrl Pts',(19.7254554133137,-22.3473980672859,76.4107419957181));
#201=CARTESIAN_POINT('Ctrl Pts',(22.3464085188318,-19.7264449617678,77.1289327916777));
#202=CARTESIAN_POINT('Ctrl Pts',(23.578696289933,-18.2456174599837,77.4982943733044));
#203=CARTESIAN_POINT('Ctrl Pts',(25.7566506292279,-15.0150732178425,78.1884631098996));
#204=CARTESIAN_POINT('Ctrl Pts',(26.7024829220378,-13.2653384310501,78.5086626747648));
#205=CARTESIAN_POINT('Ctrl Pts',(28.2263654505594,-9.6054205519883,79.0399596090869));
#206=CARTESIAN_POINT('Ctrl Pts',(28.8056263564305,-7.69199566793279,79.2510952062638));
#207=CARTESIAN_POINT('Ctrl Pts',(29.5675541226436,-3.83283842013289,79.5312029231012));
#208=CARTESIAN_POINT('Ctrl Pts',(29.75,-1.88704972718878,79.6));
#209=CARTESIAN_POINT('Ctrl Pts',(29.75,1.88704972718878,79.6));
#210=CARTESIAN_POINT('Ctrl Pts',(29.5675541226436,3.83283842013289,79.5312029231012));
#211=CARTESIAN_POINT('Ctrl Pts',(28.8056263564305,7.69199566793279,79.2510952062638));
#212=CARTESIAN_POINT('Ctrl Pts',(28.2263654505594,9.6054205519883,79.0399596090869));
#213=CARTESIAN_POINT('Ctrl Pts',(26.7024829220378,13.2653384310501,78.5086626747648));
#214=CARTESIAN_POINT('Ctrl Pts',(25.7566506292279,15.0150732178425,78.1884631098996));
#215=CARTESIAN_POINT('Ctrl Pts',(23.578696289933,18.2456174599837,77.4982943733044));
#216=CARTESIAN_POINT('Ctrl Pts',(22.3464085188318,19.7264449617678,77.1289327916777));
#217=CARTESIAN_POINT('Ctrl Pts',(19.7254554133137,22.3473980672859,76.4107419957181));
#218=CARTESIAN_POINT('Ctrl Pts',(18.2441553829411,23.5798091358456,76.0359385748161));
#219=CARTESIAN_POINT('Ctrl Pts',(15.0138639544458,25.7573386308626,75.326163188624));
#220=CARTESIAN_POINT('Ctrl Pts',(13.2648558101265,26.702665486385,74.9919070759598));
#221=CARTESIAN_POINT('Ctrl Pts',(9.6063993178772,28.2259763033987,74.4319340978372));
#222=CARTESIAN_POINT('Ctrl Pts',(7.69368802826448,28.8051679704922,74.2064017664831));
#223=CARTESIAN_POINT('Ctrl Pts',(3.83476256995431,29.5672983711352,73.9060392139949));
#224=CARTESIAN_POINT('Ctrl Pts',(1.88847518758149,29.75,73.8315481349267));
#225=CARTESIAN_POINT('Ctrl Pts',(-1.88847518758149,29.75,73.8315481349267));
#226=CARTESIAN_POINT('Ctrl Pts',(-3.83476256995431,29.5672983711352,73.9060392139949));
#227=CARTESIAN_POINT('Ctrl Pts',(-7.69368802826448,28.8051679704922,74.2064017664831));
#228=CARTESIAN_POINT('Ctrl Pts',(-9.6063993178772,28.2259763033987,74.4319340978372));
#229=CARTESIAN_POINT('Ctrl Pts',(-13.2648558101265,26.702665486385,74.9919070759598));
#230=CARTESIAN_POINT('Ctrl Pts',(-15.0138639544458,25.7573386308626,75.326163188624));
#231=CARTESIAN_POINT('Ctrl Pts',(-18.2441553829411,23.5798091358456,76.0359385748161));
#232=CARTESIAN_POINT('Ctrl Pts',(-19.7254554133137,22.3473980672859,76.4107419957181));
#233=CARTESIAN_POINT('Ctrl Pts',(-22.3464085188318,19.7264449617678,77.1289327916777));
#234=CARTESIAN_POINT('Ctrl Pts',(-23.578696289933,18.2456174599837,77.4982943733044));
#235=CARTESIAN_POINT('Ctrl Pts',(-25.7566506292279,15.0150732178425,78.1884631098996));
#236=CARTESIAN_POINT('Ctrl Pts',(-26.7024829220378,13.2653384310501,78.5086626747648));
#237=CARTESIAN_POINT('Ctrl Pts',(-28.2263654505594,9.6054205519883,79.0399596090869));
#238=CARTESIAN_POINT('Ctrl Pts',(-28.8056263564305,7.69199566793279,79.2510952062638));
#239=CARTESIAN_POINT('Ctrl Pts',(-29.5675541226436,3.83283842013289,79.5312029231012));
#240=CARTESIAN_POINT('Ctrl Pts',(-29.75,1.88704972718878,79.6));
#241=CARTESIAN_POINT('Ctrl Pts',(-29.75,3.33066907387547E-15,79.6));
#242=CARTESIAN_POINT('Ctrl Pts',(-29.75,3.33066907387547E-15,79.6));
#243=CARTESIAN_POINT('Ctrl Pts',(-29.75,-1.88704972718878,79.6));
#244=CARTESIAN_POINT('Ctrl Pts',(-29.5675541226436,-3.83283842013288,79.5312029231012));
#245=CARTESIAN_POINT('Ctrl Pts',(-28.8056263564305,-7.69199566793279,79.2510952062638));
#246=CARTESIAN_POINT('Ctrl Pts',(-28.2263654505594,-9.6054205519883,79.0399596090869));
#247=CARTESIAN_POINT('Ctrl Pts',(-26.7024829220378,-13.2653384310501,78.5086626747648));
#248=CARTESIAN_POINT('Ctrl Pts',(-25.7566506292279,-15.0150732178425,78.1884631098996));
#249=CARTESIAN_POINT('Ctrl Pts',(-23.578696289933,-18.2456174599837,77.4982943733044));
#250=CARTESIAN_POINT('Ctrl Pts',(-22.3464085188318,-19.7264449617678,77.1289327916777));
#251=CARTESIAN_POINT('Ctrl Pts',(-19.7254554133137,-22.3473980672859,76.4107419957181));
#252=CARTESIAN_POINT('Ctrl Pts',(-18.2441553829411,-23.5798091358456,76.0359385748161));
#253=CARTESIAN_POINT('Ctrl Pts',(-15.0138639544458,-25.7573386308626,75.326163188624));
#254=CARTESIAN_POINT('Ctrl Pts',(-13.2648558101265,-26.702665486385,74.9919070759598));
#255=CARTESIAN_POINT('Ctrl Pts',(-9.60639931787721,-28.2259763033987,74.4319340978372));
#256=CARTESIAN_POINT('Ctrl Pts',(-7.69368802826449,-28.8051679704922,74.2064017664831));
#257=CARTESIAN_POINT('Ctrl Pts',(-3.83476256995433,-29.5672983711352,73.9060392139949));
#258=CARTESIAN_POINT('Ctrl Pts',(-1.8884751875815,-29.75,73.8315481349267));
#259=CARTESIAN_POINT('Ctrl Pts',(-5.55111512312578E-16,-29.75,73.8315481349267));
#260=CARTESIAN_POINT('',(-29.75,3.64332422746338E-15,89.));
#261=CARTESIAN_POINT('',(-29.75,-3.64332422746338E-15,0.));
#262=CARTESIAN_POINT('Origin',(0.,0.,89.));
#263=CARTESIAN_POINT('Origin',(0.,0.,0.));
#264=CARTESIAN_POINT('',(-170.,-79.6,-9.74818852121293E-15));
#265=CARTESIAN_POINT('Origin',(-170.,0.,0.));
#266=CARTESIAN_POINT('',(170.,-79.6,9.74818852121293E-15));
#267=CARTESIAN_POINT('',(0.,-79.6,-9.74818852121293E-15));
#268=CARTESIAN_POINT('Origin',(170.,0.,0.));
#269=CARTESIAN_POINT('Origin',(0.,0.,0.));
#270=CARTESIAN_POINT('',(-31.75,-3.88825358729285E-15,89.));
#271=CARTESIAN_POINT('Origin',(0.,0.,89.));
#272=CARTESIAN_POINT('',(-31.75,-3.88701708674045E-15,82.6));
#273=CARTESIAN_POINT('',(-31.75,-3.88825358729285E-15,0.));
#274=CARTESIAN_POINT('',(0.,-31.75,76.2541638207383));
#275=CARTESIAN_POINT('Ctrl Pts',(0.,-31.75,76.2541638207383));
#276=CARTESIAN_POINT('Ctrl Pts',(-2.01686376031366,-31.75,76.2541638207383));
#277=CARTESIAN_POINT('Ctrl Pts',(-4.09497398465812,-31.5547413134975,76.3364355938726));
#278=CARTESIAN_POINT('Ctrl Pts',(-8.21437751678424,-30.7407630637362,76.6678458311453));
#279=CARTESIAN_POINT('Ctrl Pts',(-10.2557529351428,-30.1223021453575,76.9165987584204));
#280=CARTESIAN_POINT('Ctrl Pts',(-14.1596602533018,-28.496275104848,77.5337246506449));
#281=CARTESIAN_POINT('Ctrl Pts',(-16.025696398125,-27.4874199291533,77.9018865671525));
#282=CARTESIAN_POINT('Ctrl Pts',(-19.471913815183,-25.1639776699993,78.6831393160907));
#283=CARTESIAN_POINT('Ctrl Pts',(-21.0521188427347,-23.849161762611,79.0954446246721));
#284=CARTESIAN_POINT('Ctrl Pts',(-23.8479707415054,-21.0533098638404,79.8850826211746));
#285=CARTESIAN_POINT('Ctrl Pts',(-25.1626367858097,-19.4736750086351,80.2910292641332));
#286=CARTESIAN_POINT('Ctrl Pts',(-27.4865882415201,-16.0271574326133,81.0493900237142));
#287=CARTESIAN_POINT('Ctrl Pts',(-28.496051416263,-14.1602491008407,81.4011428464063));
#288=CARTESIAN_POINT('Ctrl Pts',(-30.1227678545953,-10.2545830159374,81.9847683354014));
#289=CARTESIAN_POINT('Ctrl Pts',(-30.7413137184351,-8.21234612506925,82.2166892992083));
#290=CARTESIAN_POINT('Ctrl Pts',(-31.5550494304962,-4.09265848348211,82.5244010868382));
#291=CARTESIAN_POINT('Ctrl Pts',(-31.75,-2.01514614111758,82.6));
#292=CARTESIAN_POINT('Ctrl Pts',(-31.75,-4.44089209850063E-15,82.6));
#293=CARTESIAN_POINT('Ctrl Pts',(-31.75,-3.88578058618805E-15,82.6));
#294=CARTESIAN_POINT('Ctrl Pts',(-31.75,2.01514614111757,82.6));
#295=CARTESIAN_POINT('Ctrl Pts',(-31.5550494304962,4.0926584834821,82.5244010868382));
#296=CARTESIAN_POINT('Ctrl Pts',(-30.7413137184351,8.21234612506924,82.2166892992083));
#297=CARTESIAN_POINT('Ctrl Pts',(-30.1227678545953,10.2545830159374,81.9847683354014));
#298=CARTESIAN_POINT('Ctrl Pts',(-28.496051416263,14.1602491008406,81.4011428464063));
#299=CARTESIAN_POINT('Ctrl Pts',(-27.4865882415201,16.0271574326133,81.0493900237142));
#300=CARTESIAN_POINT('Ctrl Pts',(-25.1626367858097,19.4736750086351,80.2910292641332));
#301=CARTESIAN_POINT('Ctrl Pts',(-23.8479707415054,21.0533098638404,79.8850826211746));
#302=CARTESIAN_POINT('Ctrl Pts',(-21.0521188427347,23.849161762611,79.0954446246721));
#303=CARTESIAN_POINT('Ctrl Pts',(-19.471913815183,25.1639776699993,78.6831393160907));
#304=CARTESIAN_POINT('Ctrl Pts',(-16.025696398125,27.4874199291533,77.9018865671525));
#305=CARTESIAN_POINT('Ctrl Pts',(-14.1596602533018,28.496275104848,77.5337246506449));
#306=CARTESIAN_POINT('Ctrl Pts',(-10.2557529351428,30.1223021453575,76.9165987584204));
#307=CARTESIAN_POINT('Ctrl Pts',(-8.21437751678424,30.7407630637362,76.6678458311452));
#308=CARTESIAN_POINT('Ctrl Pts',(-4.09497398465813,31.5547413134975,76.3364355938726));
#309=CARTESIAN_POINT('Ctrl Pts',(-2.01686376031366,31.75,76.2541638207383));
#310=CARTESIAN_POINT('Ctrl Pts',(2.01686376031366,31.75,76.2541638207383));
#311=CARTESIAN_POINT('Ctrl Pts',(4.09497398465813,31.5547413134975,76.3364355938726));
#312=CARTESIAN_POINT('Ctrl Pts',(8.21437751678424,30.7407630637362,76.6678458311452));
#313=CARTESIAN_POINT('Ctrl Pts',(10.2557529351428,30.1223021453575,76.9165987584204));
#314=CARTESIAN_POINT('Ctrl Pts',(14.1596602533018,28.496275104848,77.5337246506449));
#315=CARTESIAN_POINT('Ctrl Pts',(16.0256963981249,27.4874199291533,77.9018865671525));
#316=CARTESIAN_POINT('Ctrl Pts',(19.471913815183,25.1639776699993,78.6831393160907));
#317=CARTESIAN_POINT('Ctrl Pts',(21.0521188427347,23.849161762611,79.0954446246721));
#318=CARTESIAN_POINT('Ctrl Pts',(23.8479707415054,21.0533098638404,79.8850826211746));
#319=CARTESIAN_POINT('Ctrl Pts',(25.1626367858097,19.4736750086351,80.2910292641332));
#320=CARTESIAN_POINT('Ctrl Pts',(27.4865882415201,16.0271574326133,81.0493900237142));
#321=CARTESIAN_POINT('Ctrl Pts',(28.496051416263,14.1602491008407,81.4011428464063));
#322=CARTESIAN_POINT('Ctrl Pts',(30.1227678545953,10.2545830159374,81.9847683354014));
#323=CARTESIAN_POINT('Ctrl Pts',(30.7413137184351,8.21234612506926,82.2166892992083));
#324=CARTESIAN_POINT('Ctrl Pts',(31.5550494304962,4.09265848348212,82.5244010868382));
#325=CARTESIAN_POINT('Ctrl Pts',(31.75,2.01514614111758,82.6));
#326=CARTESIAN_POINT('Ctrl Pts',(31.75,-2.01514614111757,82.6));
#327=CARTESIAN_POINT('Ctrl Pts',(31.5550494304962,-4.0926584834821,82.5244010868382));
#328=CARTESIAN_POINT('Ctrl Pts',(30.7413137184351,-8.21234612506924,82.2166892992083));
#329=CARTESIAN_POINT('Ctrl Pts',(30.1227678545953,-10.2545830159374,81.9847683354014));
#330=CARTESIAN_POINT('Ctrl Pts',(28.496051416263,-14.1602491008406,81.4011428464063));
#331=CARTESIAN_POINT('Ctrl Pts',(27.4865882415201,-16.0271574326133,81.0493900237142));
#332=CARTESIAN_POINT('Ctrl Pts',(25.1626367858097,-19.473675008635,80.2910292641332));
#333=CARTESIAN_POINT('Ctrl Pts',(23.8479707415054,-21.0533098638404,79.8850826211746));
#334=CARTESIAN_POINT('Ctrl Pts',(21.0521188427347,-23.849161762611,79.0954446246721));
#335=CARTESIAN_POINT('Ctrl Pts',(19.471913815183,-25.1639776699993,78.6831393160907));
#336=CARTESIAN_POINT('Ctrl Pts',(16.025696398125,-27.4874199291533,77.9018865671525));
#337=CARTESIAN_POINT('Ctrl Pts',(14.1596602533018,-28.496275104848,77.5337246506449));
#338=CARTESIAN_POINT('Ctrl Pts',(10.2557529351428,-30.1223021453575,76.9165987584204));
#339=CARTESIAN_POINT('Ctrl Pts',(8.21437751678426,-30.7407630637362,76.6678458311453));
#340=CARTESIAN_POINT('Ctrl Pts',(4.09497398465814,-31.5547413134975,76.3364355938726));
#341=CARTESIAN_POINT('Ctrl Pts',(2.01686376031367,-31.75,76.2541638207383));
#342=CARTESIAN_POINT('Ctrl Pts',(-5.55111512312578E-16,-31.75,76.2541638207383));
#343=CARTESIAN_POINT('Origin',(0.,0.,89.));
#344=CARTESIAN_POINT('Origin',(-170.,0.,0.));
#345=CARTESIAN_POINT('',(-170.,-82.6,-1.01155825609571E-14));
#346=CARTESIAN_POINT('Origin',(-170.,0.,0.));
#347=CARTESIAN_POINT('Origin',(0.,0.,0.));
#348=CARTESIAN_POINT('',(170.,-82.6,-1.01155825609571E-14));
#349=CARTESIAN_POINT('Origin',(170.,0.,0.));
#350=CARTESIAN_POINT('',(0.,-82.6,-1.01155825609571E-14));
#351=CARTESIAN_POINT('Origin',(170.,0.,0.));
#352=UNCERTAINTY_MEASURE_WITH_UNIT(LENGTH_MEASURE(0.01),#356,
'DISTANCE_ACCURACY_VALUE',
'Maximum model space distance between geometric entities at asserted c
onnectivities');
#353=UNCERTAINTY_MEASURE_WITH_UNIT(LENGTH_MEASURE(0.01),#356,
'DISTANCE_ACCURACY_VALUE',
'Maximum model space distance between geometric entities at asserted c
onnectivities');
#354=(
GEOMETRIC_REPRESENTATION_CONTEXT(3)
GLOBAL_UNCERTAINTY_ASSIGNED_CONTEXT((#352))
GLOBAL_UNIT_ASSIGNED_CONTEXT((#356,#358,#359))
REPRESENTATION_CONTEXT('','3D')
);
#355=(
GEOMETRIC_REPRESENTATION_CONTEXT(3)
GLOBAL_UNCERTAINTY_ASSIGNED_CONTEXT((#353))
GLOBAL_UNIT_ASSIGNED_CONTEXT((#356,#358,#359))
REPRESENTATION_CONTEXT('','3D')
);
#356=(
LENGTH_UNIT()
NAMED_UNIT(*)
SI_UNIT(.MILLI.,.METRE.)
);
#357=(
LENGTH_UNIT()
NAMED_UNIT(*)
SI_UNIT(.CENTI.,.METRE.)
);
#358=(
NAMED_UNIT(*)
PLANE_ANGLE_UNIT()
SI_UNIT($,.RADIAN.)
);
#359=(
NAMED_UNIT(*)
SI_UNIT($,.STERADIAN.)
SOLID_ANGLE_UNIT()
);
#360=SHAPE_DEFINITION_REPRESENTATION(#361,#362);
#361=PRODUCT_DEFINITION_SHAPE('',$,#364);
#362=SHAPE_REPRESENTATION('',(#142),#354);
#363=PRODUCT_DEFINITION_CONTEXT('part definition',#368,'design');
#364=PRODUCT_DEFINITION('T-8 60\X\D725','T-8 60\X\D725',#365,#363);
#365=PRODUCT_DEFINITION_FORMATION('',$,#370);
#366=PRODUCT_RELATED_PRODUCT_CATEGORY('T-8 60\X\D725','T-8 60\X\D725',(#370));
#367=APPLICATION_PROTOCOL_DEFINITION('international standard',
'automotive_design',2009,#368);
#368=APPLICATION_CONTEXT(
'Core Data for Automotive Mechanical Design Process');
#369=PRODUCT_CONTEXT('part definition',#368,'mechanical');
#370=PRODUCT('T-8 60\X\D725','T-8 60\X\D725',$,(#369));
#371=PRESENTATION_STYLE_ASSIGNMENT((#372));
#372=SURFACE_STYLE_USAGE(.BOTH.,#375);
#373=SURFACE_STYLE_RENDERING_WITH_PROPERTIES($,#379,(#374));
#374=SURFACE_STYLE_TRANSPARENT(0.);
#375=SURFACE_SIDE_STYLE('',(#376,#373));
#376=SURFACE_STYLE_FILL_AREA(#377);
#377=FILL_AREA_STYLE('',(#378));
#378=FILL_AREA_STYLE_COLOUR('',#379);
#379=COLOUR_RGB('',0.749019607843137,0.749019607843137,0.749019607843137);
ENDSEC;
END-ISO-10303-21;
