ISO-10303-21;
HEADER;
/* Generated by software containing ST-Developer
 * from STEP Tools, Inc. (www.steptools.com) 
 */

FILE_DESCRIPTION(
/* description */ (''),
/* implementation_level */ '2;1');

FILE_NAME(
/* name */ 
'\\\\Tske00\\w\\Work\\TOSTE\\\X2\7D99624B\X0\\\02_\X2\6EB663A5\X0\\\\X2\6EB663A5752830C130FC30BA\X0\\\
T-8\\T-8 60\X\D715.stp',
/* time_stamp */ '2022-04-28T09:45:38+09:00',
/* author */ ('3dcad-eng'),
/* organization */ (''),
/* preprocessor_version */ 'ST-DEVELOPER v18.1',
/* originating_system */ 'Autodesk Inventor 2022',
/* authorisation */ '');

FILE_SCHEMA (('AUTOMOTIVE_DESIGN { 1 0 10303 214 3 1 1 }'));
ENDSEC;

DATA;
#10=MECHANICAL_DESIGN_GEOMETRIC_PRESENTATION_REPRESENTATION('',(#13),#355);
#11=SHAPE_REPRESENTATION_RELATIONSHIP('SRR','None',#362,#12);
#12=ADVANCED_BREP_SHAPE_REPRESENTATION('',(#14),#354);
#13=STYLED_ITEM('',(#371),#14);
#14=MANIFOLD_SOLID_BREP('\X2\30BD30EA30C330C9\X0\1',#123);
#15=PLANE('',#150);
#16=PLANE('',#151);
#17=PLANE('',#155);
#18=FACE_BOUND('',#32,.T.);
#19=FACE_BOUND('',#35,.T.);
#20=FACE_BOUND('',#37,.T.);
#21=FACE_BOUND('',#39,.T.);
#22=FACE_BOUND('',#41,.T.);
#23=FACE_OUTER_BOUND('',#30,.T.);
#24=FACE_OUTER_BOUND('',#31,.T.);
#25=FACE_OUTER_BOUND('',#33,.T.);
#26=FACE_OUTER_BOUND('',#34,.T.);
#27=FACE_OUTER_BOUND('',#36,.T.);
#28=FACE_OUTER_BOUND('',#38,.T.);
#29=FACE_OUTER_BOUND('',#40,.T.);
#30=EDGE_LOOP('',(#84,#85,#86,#87,#88));
#31=EDGE_LOOP('',(#89,#90,#91,#92));
#32=EDGE_LOOP('',(#93,#94));
#33=EDGE_LOOP('',(#95,#96,#97,#98,#99));
#34=EDGE_LOOP('',(#100));
#35=EDGE_LOOP('',(#101));
#36=EDGE_LOOP('',(#102));
#37=EDGE_LOOP('',(#103));
#38=EDGE_LOOP('',(#104,#105,#106,#107));
#39=EDGE_LOOP('',(#108,#109));
#40=EDGE_LOOP('',(#110));
#41=EDGE_LOOP('',(#111));
#42=CIRCLE('',#144,17.85);
#43=CIRCLE('',#146,79.6);
#44=CIRCLE('',#147,79.6);
#45=CIRCLE('',#149,19.05);
#46=CIRCLE('',#152,82.6);
#47=CIRCLE('',#154,82.6);
#48=LINE('',#261,#52);
#49=LINE('',#267,#53);
#50=LINE('',#273,#54);
#51=LINE('',#350,#55);
#52=VECTOR('',#160,17.85);
#53=VECTOR('',#167,79.6);
#54=VECTOR('',#174,19.05);
#55=VECTOR('',#185,82.6);
#56=B_SPLINE_CURVE_WITH_KNOTS('',3,(#192,#193,#194,#195,#196,#197,#198,
#199,#200,#201,#202,#203,#204,#205,#206,#207,#208,#209,#210,#211,#212,#213,
#214,#215,#216,#217,#218,#219,#220,#221,#222,#223,#224,#225,#226,#227,#228,
#229,#230,#231,#232,#233,#234,#235,#236,#237,#238,#239,#240,#241),
 .UNSPECIFIED.,.F.,.F.,(4,2,2,2,2,2,2,2,2,2,2,2,2,2,2,2,2,2,2,2,2,2,2,2,
4),(0.,0.337446255941439,0.674892511882877,1.01233876782432,1.34978502376575,
1.68720109759568,2.02461717142561,2.36203324525554,2.69944931908547,3.0368653929154,
3.37428146674533,3.71169754057526,4.04911361440519,4.38655987034663,4.72400612628807,
5.06145238222951,5.39889863817095,5.73634489411238,6.07379115005382,6.41123740599526,
6.7486836619367,7.08609973576663,7.42351580959656,7.76093188342649,8.09834795725642),
 .UNSPECIFIED.);
#57=B_SPLINE_CURVE_WITH_KNOTS('',3,(#242,#243,#244,#245,#246,#247,#248,
#249,#250,#251,#252,#253,#254,#255,#256,#257,#258,#259),.UNSPECIFIED.,.F.,
 .F.,(4,2,2,2,2,2,2,2,4),(8.09834795725642,8.43576403108635,8.77318010491628,
9.11059617874621,9.44801225257614,9.78545850851757,10.122904764459,10.4603510204005,
10.7977972763419),.UNSPECIFIED.);
#58=B_SPLINE_CURVE_WITH_KNOTS('',3,(#275,#276,#277,#278,#279,#280,#281,
#282,#283,#284,#285,#286,#287,#288,#289,#290,#291,#292),.UNSPECIFIED.,.F.,
 .F.,(4,2,2,2,2,2,2,2,4),(0.,0.360212034833859,0.720424069667718,1.08063610450158,
1.44084813933544,1.80102402616594,2.16119991299644,2.52137579982694,2.88155168665744),
 .UNSPECIFIED.);
#59=B_SPLINE_CURVE_WITH_KNOTS('',3,(#293,#294,#295,#296,#297,#298,#299,
#300,#301,#302,#303,#304,#305,#306,#307,#308,#309,#310,#311,#312,#313,#314,
#315,#316,#317,#318,#319,#320,#321,#322,#323,#324,#325,#326,#327,#328,#329,
#330,#331,#332,#333,#334,#335,#336,#337,#338,#339,#340,#341,#342),
 .UNSPECIFIED.,.F.,.F.,(4,2,2,2,2,2,2,2,2,2,2,2,2,2,2,2,2,2,2,2,2,2,2,2,
4),(2.88155168665744,3.24172757348795,3.60190346031845,3.96207934714895,
4.32225523397945,4.68246726881331,5.04267930364717,5.40289133848103,5.76310337331489,
6.12331540814875,6.48352744298261,6.84373947781647,7.20395151265033,7.56412739948083,
7.92430328631133,8.28447917314183,8.64465505997233,9.00483094680284,9.36500683363334,
9.72518272046384,10.0853586072943,10.4455706421282,10.8057826769621,11.1659947117959,
11.5262067466298),.UNSPECIFIED.);
#60=VERTEX_POINT('',#190);
#61=VERTEX_POINT('',#191);
#62=VERTEX_POINT('',#260);
#63=VERTEX_POINT('',#264);
#64=VERTEX_POINT('',#266);
#65=VERTEX_POINT('',#270);
#66=VERTEX_POINT('',#272);
#67=VERTEX_POINT('',#274);
#68=VERTEX_POINT('',#345);
#69=VERTEX_POINT('',#348);
#70=EDGE_CURVE('',#60,#61,#56,.T.);
#71=EDGE_CURVE('',#61,#60,#57,.T.);
#72=EDGE_CURVE('',#61,#62,#48,.T.);
#73=EDGE_CURVE('',#62,#62,#42,.T.);
#74=EDGE_CURVE('',#63,#63,#43,.T.);
#75=EDGE_CURVE('',#63,#64,#49,.T.);
#76=EDGE_CURVE('',#64,#64,#44,.T.);
#77=EDGE_CURVE('',#65,#65,#45,.T.);
#78=EDGE_CURVE('',#65,#66,#50,.T.);
#79=EDGE_CURVE('',#67,#66,#58,.T.);
#80=EDGE_CURVE('',#66,#67,#59,.T.);
#81=EDGE_CURVE('',#68,#68,#46,.T.);
#82=EDGE_CURVE('',#69,#69,#47,.T.);
#83=EDGE_CURVE('',#69,#68,#51,.T.);
#84=ORIENTED_EDGE('',*,*,#70,.F.);
#85=ORIENTED_EDGE('',*,*,#71,.F.);
#86=ORIENTED_EDGE('',*,*,#72,.T.);
#87=ORIENTED_EDGE('',*,*,#73,.F.);
#88=ORIENTED_EDGE('',*,*,#72,.F.);
#89=ORIENTED_EDGE('',*,*,#74,.F.);
#90=ORIENTED_EDGE('',*,*,#75,.T.);
#91=ORIENTED_EDGE('',*,*,#76,.F.);
#92=ORIENTED_EDGE('',*,*,#75,.F.);
#93=ORIENTED_EDGE('',*,*,#70,.T.);
#94=ORIENTED_EDGE('',*,*,#71,.T.);
#95=ORIENTED_EDGE('',*,*,#77,.F.);
#96=ORIENTED_EDGE('',*,*,#78,.T.);
#97=ORIENTED_EDGE('',*,*,#79,.F.);
#98=ORIENTED_EDGE('',*,*,#80,.F.);
#99=ORIENTED_EDGE('',*,*,#78,.F.);
#100=ORIENTED_EDGE('',*,*,#77,.T.);
#101=ORIENTED_EDGE('',*,*,#73,.T.);
#102=ORIENTED_EDGE('',*,*,#81,.T.);
#103=ORIENTED_EDGE('',*,*,#74,.T.);
#104=ORIENTED_EDGE('',*,*,#82,.F.);
#105=ORIENTED_EDGE('',*,*,#83,.T.);
#106=ORIENTED_EDGE('',*,*,#81,.F.);
#107=ORIENTED_EDGE('',*,*,#83,.F.);
#108=ORIENTED_EDGE('',*,*,#79,.T.);
#109=ORIENTED_EDGE('',*,*,#80,.T.);
#110=ORIENTED_EDGE('',*,*,#82,.T.);
#111=ORIENTED_EDGE('',*,*,#76,.T.);
#112=CYLINDRICAL_SURFACE('',#143,17.85);
#113=CYLINDRICAL_SURFACE('',#145,79.6);
#114=CYLINDRICAL_SURFACE('',#148,19.05);
#115=CYLINDRICAL_SURFACE('',#153,82.6);
#116=ADVANCED_FACE('',(#23),#112,.F.);
#117=ADVANCED_FACE('',(#24,#18),#113,.F.);
#118=ADVANCED_FACE('',(#25),#114,.T.);
#119=ADVANCED_FACE('',(#26,#19),#15,.T.);
#120=ADVANCED_FACE('',(#27,#20),#16,.F.);
#121=ADVANCED_FACE('',(#28,#21),#115,.T.);
#122=ADVANCED_FACE('',(#29,#22),#17,.T.);
#123=CLOSED_SHELL('',(#116,#117,#118,#119,#120,#121,#122));
#124=DERIVED_UNIT_ELEMENT(#126,1.);
#125=DERIVED_UNIT_ELEMENT(#357,-3.);
#126=(
MASS_UNIT()
NAMED_UNIT(*)
SI_UNIT($,.GRAM.)
);
#127=DERIVED_UNIT((#124,#125));
#128=MEASURE_REPRESENTATION_ITEM('density measure',
POSITIVE_RATIO_MEASURE(1.),#127);
#129=PROPERTY_DEFINITION_REPRESENTATION(#134,#131);
#130=PROPERTY_DEFINITION_REPRESENTATION(#135,#132);
#131=REPRESENTATION('material name',(#133),#354);
#132=REPRESENTATION('density',(#128),#354);
#133=DESCRIPTIVE_REPRESENTATION_ITEM('\X2\4E00822C\X0\','\X2\4E00822C\X0\');
#134=PROPERTY_DEFINITION('material property','material name',#364);
#135=PROPERTY_DEFINITION('material property','density of part',#364);
#136=DATE_TIME_ROLE('creation_date');
#137=APPLIED_DATE_AND_TIME_ASSIGNMENT(#138,#136,(#364));
#138=DATE_AND_TIME(#139,#140);
#139=CALENDAR_DATE(2022,31,3);
#140=LOCAL_TIME(0,0,0.,#141);
#141=COORDINATED_UNIVERSAL_TIME_OFFSET(0,0,.BEHIND.);
#142=AXIS2_PLACEMENT_3D('placement',#188,#156,#157);
#143=AXIS2_PLACEMENT_3D('',#189,#158,#159);
#144=AXIS2_PLACEMENT_3D('',#262,#161,#162);
#145=AXIS2_PLACEMENT_3D('',#263,#163,#164);
#146=AXIS2_PLACEMENT_3D('',#265,#165,#166);
#147=AXIS2_PLACEMENT_3D('',#268,#168,#169);
#148=AXIS2_PLACEMENT_3D('',#269,#170,#171);
#149=AXIS2_PLACEMENT_3D('',#271,#172,#173);
#150=AXIS2_PLACEMENT_3D('',#343,#175,#176);
#151=AXIS2_PLACEMENT_3D('',#344,#177,#178);
#152=AXIS2_PLACEMENT_3D('',#346,#179,#180);
#153=AXIS2_PLACEMENT_3D('',#347,#181,#182);
#154=AXIS2_PLACEMENT_3D('',#349,#183,#184);
#155=AXIS2_PLACEMENT_3D('',#351,#186,#187);
#156=DIRECTION('axis',(0.,0.,1.));
#157=DIRECTION('refdir',(1.,0.,0.));
#158=DIRECTION('center_axis',(0.,0.,1.));
#159=DIRECTION('ref_axis',(1.,0.,0.));
#160=DIRECTION('',(0.,0.,1.));
#161=DIRECTION('center_axis',(0.,0.,-1.));
#162=DIRECTION('ref_axis',(1.,0.,0.));
#163=DIRECTION('center_axis',(1.,0.,0.));
#164=DIRECTION('ref_axis',(0.,1.,0.));
#165=DIRECTION('center_axis',(1.,0.,0.));
#166=DIRECTION('ref_axis',(0.,1.,0.));
#167=DIRECTION('',(1.,0.,0.));
#168=DIRECTION('center_axis',(-1.,0.,0.));
#169=DIRECTION('ref_axis',(0.,1.,0.));
#170=DIRECTION('center_axis',(0.,0.,1.));
#171=DIRECTION('ref_axis',(1.,0.,0.));
#172=DIRECTION('center_axis',(0.,0.,1.));
#173=DIRECTION('ref_axis',(1.,0.,0.));
#174=DIRECTION('',(0.,0.,-1.));
#175=DIRECTION('center_axis',(0.,0.,1.));
#176=DIRECTION('ref_axis',(1.,0.,0.));
#177=DIRECTION('center_axis',(1.,0.,0.));
#178=DIRECTION('ref_axis',(0.,0.,-1.));
#179=DIRECTION('center_axis',(-1.,0.,0.));
#180=DIRECTION('ref_axis',(0.,1.,0.));
#181=DIRECTION('center_axis',(1.,0.,0.));
#182=DIRECTION('ref_axis',(0.,1.,0.));
#183=DIRECTION('center_axis',(1.,0.,0.));
#184=DIRECTION('ref_axis',(0.,1.,0.));
#185=DIRECTION('',(-1.,0.,0.));
#186=DIRECTION('center_axis',(1.,0.,0.));
#187=DIRECTION('ref_axis',(0.,0.,-1.));
#188=CARTESIAN_POINT('',(0.,0.,0.));
#189=CARTESIAN_POINT('Origin',(0.,0.,0.));
#190=CARTESIAN_POINT('',(0.,-17.85,77.5727883990256));
#191=CARTESIAN_POINT('',(-17.85,1.72257563861439E-17,79.6));
#192=CARTESIAN_POINT('Ctrl Pts',(0.,-17.85,77.5727883990256));
#193=CARTESIAN_POINT('Ctrl Pts',(1.12482085313813,-17.85,77.5727883990256));
#194=CARTESIAN_POINT('Ctrl Pts',(2.28678406540783,-17.7419650006483,77.5979171216888));
#195=CARTESIAN_POINT('Ctrl Pts',(4.59568630956851,-17.2883304810854,77.7002425533777));
#196=CARTESIAN_POINT('Ctrl Pts',(5.74265079776274,-16.9428421213518,77.7773576130666));
#197=CARTESIAN_POINT('Ctrl Pts',(7.94038717262397,-16.0308515131347,77.9704370040615));
#198=CARTESIAN_POINT('Ctrl Pts',(8.99298266106815,-15.4636243666061,78.0863640963158));
#199=CARTESIAN_POINT('Ctrl Pts',(10.9385877755815,-14.1543178294493,78.3342787232018));
#200=CARTESIAN_POINT('Ctrl Pts',(11.8315669868166,-13.4121451015432,78.4660119346754));
#201=CARTESIAN_POINT('Ctrl Pts',(13.4120744159391,-11.8316376724207,78.7198380368346));
#202=CARTESIAN_POINT('Ctrl Pts',(14.154239220546,-10.9386913506152,78.8509129099318));
#203=CARTESIAN_POINT('Ctrl Pts',(15.4635773832072,-8.99306571258531,79.0964361035086));
#204=CARTESIAN_POINT('Ctrl Pts',(16.0308407544441,-7.94041685643527,79.2106457080581));
#205=CARTESIAN_POINT('Ctrl Pts',(16.9428715517557,-5.74257611834806,79.4002483164446));
#206=CARTESIAN_POINT('Ctrl Pts',(17.2883638162122,-4.59556222299596,79.4756319649119));
#207=CARTESIAN_POINT('Ctrl Pts',(17.7419830761154,-2.28664647793659,79.5755396855881));
#208=CARTESIAN_POINT('Ctrl Pts',(17.85,-1.12472024609976,79.6));
#209=CARTESIAN_POINT('Ctrl Pts',(17.85,1.12472024609977,79.6));
#210=CARTESIAN_POINT('Ctrl Pts',(17.7419830761154,2.2866464779366,79.5755396855881));
#211=CARTESIAN_POINT('Ctrl Pts',(17.2883638162122,4.59556222299596,79.4756319649119));
#212=CARTESIAN_POINT('Ctrl Pts',(16.9428715517557,5.74257611834807,79.4002483164446));
#213=CARTESIAN_POINT('Ctrl Pts',(16.0308407544441,7.94041685643527,79.2106457080581));
#214=CARTESIAN_POINT('Ctrl Pts',(15.4635773832072,8.99306571258531,79.0964361035086));
#215=CARTESIAN_POINT('Ctrl Pts',(14.154239220546,10.9386913506152,78.8509129099318));
#216=CARTESIAN_POINT('Ctrl Pts',(13.4120744159391,11.8316376724207,78.7198380368346));
#217=CARTESIAN_POINT('Ctrl Pts',(11.8315669868166,13.4121451015432,78.4660119346754));
#218=CARTESIAN_POINT('Ctrl Pts',(10.9385877755815,14.1543178294493,78.3342787232018));
#219=CARTESIAN_POINT('Ctrl Pts',(8.99298266106815,15.4636243666061,78.0863640963158));
#220=CARTESIAN_POINT('Ctrl Pts',(7.94038717262397,16.0308515131347,77.9704370040615));
#221=CARTESIAN_POINT('Ctrl Pts',(5.74265079776274,16.9428421213518,77.7773576130666));
#222=CARTESIAN_POINT('Ctrl Pts',(4.59568630956851,17.2883304810854,77.7002425533777));
#223=CARTESIAN_POINT('Ctrl Pts',(2.28678406540783,17.7419650006483,77.5979171216888));
#224=CARTESIAN_POINT('Ctrl Pts',(1.12482085313813,17.85,77.5727883990256));
#225=CARTESIAN_POINT('Ctrl Pts',(-1.12482085313813,17.85,77.5727883990256));
#226=CARTESIAN_POINT('Ctrl Pts',(-2.28678406540783,17.7419650006483,77.5979171216888));
#227=CARTESIAN_POINT('Ctrl Pts',(-4.59568630956851,17.2883304810854,77.7002425533777));
#228=CARTESIAN_POINT('Ctrl Pts',(-5.74265079776274,16.9428421213518,77.7773576130666));
#229=CARTESIAN_POINT('Ctrl Pts',(-7.94038717262397,16.0308515131347,77.9704370040615));
#230=CARTESIAN_POINT('Ctrl Pts',(-8.99298266106815,15.4636243666061,78.0863640963158));
#231=CARTESIAN_POINT('Ctrl Pts',(-10.9385877755815,14.1543178294493,78.3342787232018));
#232=CARTESIAN_POINT('Ctrl Pts',(-11.8315669868166,13.4121451015432,78.4660119346754));
#233=CARTESIAN_POINT('Ctrl Pts',(-13.4120744159391,11.8316376724207,78.7198380368346));
#234=CARTESIAN_POINT('Ctrl Pts',(-14.154239220546,10.9386913506152,78.8509129099318));
#235=CARTESIAN_POINT('Ctrl Pts',(-15.4635773832072,8.99306571258531,79.0964361035086));
#236=CARTESIAN_POINT('Ctrl Pts',(-16.0308407544441,7.94041685643527,79.2106457080581));
#237=CARTESIAN_POINT('Ctrl Pts',(-16.9428715517557,5.74257611834807,79.4002483164446));
#238=CARTESIAN_POINT('Ctrl Pts',(-17.2883638162122,4.59556222299596,79.4756319649119));
#239=CARTESIAN_POINT('Ctrl Pts',(-17.7419830761154,2.2866464779366,79.5755396855881));
#240=CARTESIAN_POINT('Ctrl Pts',(-17.85,1.12472024609977,79.6));
#241=CARTESIAN_POINT('Ctrl Pts',(-17.85,1.66533453693773E-15,79.6));
#242=CARTESIAN_POINT('Ctrl Pts',(-17.85,2.22044604925031E-15,79.6));
#243=CARTESIAN_POINT('Ctrl Pts',(-17.85,-1.12472024609976,79.6));
#244=CARTESIAN_POINT('Ctrl Pts',(-17.7419830761154,-2.2866464779366,79.5755396855881));
#245=CARTESIAN_POINT('Ctrl Pts',(-17.2883638162122,-4.59556222299596,79.4756319649119));
#246=CARTESIAN_POINT('Ctrl Pts',(-16.9428715517557,-5.74257611834807,79.4002483164446));
#247=CARTESIAN_POINT('Ctrl Pts',(-16.0308407544441,-7.94041685643527,79.2106457080581));
#248=CARTESIAN_POINT('Ctrl Pts',(-15.4635773832072,-8.99306571258531,79.0964361035086));
#249=CARTESIAN_POINT('Ctrl Pts',(-14.154239220546,-10.9386913506152,78.8509129099318));
#250=CARTESIAN_POINT('Ctrl Pts',(-13.4120744159391,-11.8316376724207,78.7198380368346));
#251=CARTESIAN_POINT('Ctrl Pts',(-11.8315669868166,-13.4121451015432,78.4660119346754));
#252=CARTESIAN_POINT('Ctrl Pts',(-10.9385877755815,-14.1543178294493,78.3342787232018));
#253=CARTESIAN_POINT('Ctrl Pts',(-8.99298266106815,-15.4636243666061,78.0863640963158));
#254=CARTESIAN_POINT('Ctrl Pts',(-7.94038717262397,-16.0308515131347,77.9704370040615));
#255=CARTESIAN_POINT('Ctrl Pts',(-5.74265079776274,-16.9428421213518,77.7773576130666));
#256=CARTESIAN_POINT('Ctrl Pts',(-4.59568630956851,-17.2883304810854,77.7002425533777));
#257=CARTESIAN_POINT('Ctrl Pts',(-2.28678406540783,-17.7419650006483,77.5979171216888));
#258=CARTESIAN_POINT('Ctrl Pts',(-1.12482085313813,-17.85,77.5727883990256));
#259=CARTESIAN_POINT('Ctrl Pts',(0.,-17.85,77.5727883990256));
#260=CARTESIAN_POINT('',(-17.85,2.18599453647803E-15,87.5));
#261=CARTESIAN_POINT('',(-17.85,-2.18599453647803E-15,0.));
#262=CARTESIAN_POINT('Origin',(0.,0.,87.5));
#263=CARTESIAN_POINT('Origin',(0.,0.,0.));
#264=CARTESIAN_POINT('',(-170.,-79.6,-9.74818852121293E-15));
#265=CARTESIAN_POINT('Origin',(-170.,0.,0.));
#266=CARTESIAN_POINT('',(170.,-79.6,9.74818852121293E-15));
#267=CARTESIAN_POINT('',(0.,-79.6,-9.74818852121293E-15));
#268=CARTESIAN_POINT('Origin',(170.,0.,0.));
#269=CARTESIAN_POINT('Origin',(0.,0.,0.));
#270=CARTESIAN_POINT('',(-19.05,-2.33295215237571E-15,87.5));
#271=CARTESIAN_POINT('Origin',(0.,0.,87.5));
#272=CARTESIAN_POINT('',(-19.05,-2.41547697889116E-15,82.6));
#273=CARTESIAN_POINT('',(-19.05,-2.33295215237571E-15,0.));
#274=CARTESIAN_POINT('',(-2.77555756156289E-16,-19.05,80.3732387054298));
#275=CARTESIAN_POINT('Ctrl Pts',(-2.77555756156289E-16,-19.05,80.3732387054298));
#276=CARTESIAN_POINT('Ctrl Pts',(-1.20070678277953,-19.05,80.3732387054298));
#277=CARTESIAN_POINT('Ctrl Pts',(-2.4409777274194,-18.9346507309927,80.4008755620386));
#278=CARTESIAN_POINT('Ctrl Pts',(-4.90531987315207,-18.4503985743625,80.5133813838149));
#279=CARTESIAN_POINT('Ctrl Pts',(-6.12941872053493,-18.0816152848368,80.5981595082494));
#280=CARTESIAN_POINT('Ctrl Pts',(-8.47482176395221,-17.1082434797462,80.8103713695478));
#281=CARTESIAN_POINT('Ctrl Pts',(-9.59807670158264,-16.502881362988,80.9377632521954));
#282=CARTESIAN_POINT('Ctrl Pts',(-11.6742296707604,-15.1056456764229,81.2101353416464));
#283=CARTESIAN_POINT('Ctrl Pts',(-12.6270967277872,-14.3136716354203,81.3548361645564));
#284=CARTESIAN_POINT('Ctrl Pts',(-14.3135870098254,-12.627181353382,81.633600358539));
#285=CARTESIAN_POINT('Ctrl Pts',(-15.1055515334017,-11.6743537026271,81.7775352011316));
#286=CARTESIAN_POINT('Ctrl Pts',(-16.5028250370487,-9.59817624988667,82.0471255475462));
#287=CARTESIAN_POINT('Ctrl Pts',(-17.108230525148,-8.47485747579085,82.172519735087));
#288=CARTESIAN_POINT('Ctrl Pts',(-18.0816504549849,-6.12932947878092,82.380686625032));
#289=CARTESIAN_POINT('Ctrl Pts',(-18.4504384640086,-4.90517142502007,82.4634498851406));
#290=CARTESIAN_POINT('Ctrl Pts',(-18.9346723786609,-2.44081300739719,82.5731415505731));
#291=CARTESIAN_POINT('Ctrl Pts',(-19.05,-1.20058628943501,82.6));
#292=CARTESIAN_POINT('Ctrl Pts',(-19.05,-2.77555756156289E-15,82.6));
#293=CARTESIAN_POINT('Ctrl Pts',(-19.05,-2.4980018054066E-15,82.6));
#294=CARTESIAN_POINT('Ctrl Pts',(-19.05,1.20058628943501,82.6));
#295=CARTESIAN_POINT('Ctrl Pts',(-18.9346723786609,2.44081300739719,82.5731415505731));
#296=CARTESIAN_POINT('Ctrl Pts',(-18.4504384640086,4.90517142502007,82.4634498851406));
#297=CARTESIAN_POINT('Ctrl Pts',(-18.0816504549849,6.12932947878092,82.380686625032));
#298=CARTESIAN_POINT('Ctrl Pts',(-17.108230525148,8.47485747579085,82.172519735087));
#299=CARTESIAN_POINT('Ctrl Pts',(-16.5028250370487,9.59817624988666,82.0471255475462));
#300=CARTESIAN_POINT('Ctrl Pts',(-15.1055515334017,11.6743537026271,81.7775352011316));
#301=CARTESIAN_POINT('Ctrl Pts',(-14.3135870098254,12.627181353382,81.633600358539));
#302=CARTESIAN_POINT('Ctrl Pts',(-12.6270967277872,14.3136716354203,81.3548361645564));
#303=CARTESIAN_POINT('Ctrl Pts',(-11.6742296707604,15.1056456764229,81.2101353416464));
#304=CARTESIAN_POINT('Ctrl Pts',(-9.59807670158265,16.502881362988,80.9377632521954));
#305=CARTESIAN_POINT('Ctrl Pts',(-8.47482176395222,17.1082434797462,80.8103713695478));
#306=CARTESIAN_POINT('Ctrl Pts',(-6.12941872053494,18.0816152848368,80.5981595082494));
#307=CARTESIAN_POINT('Ctrl Pts',(-4.90531987315208,18.4503985743625,80.5133813838149));
#308=CARTESIAN_POINT('Ctrl Pts',(-2.44097772741941,18.9346507309927,80.4008755620386));
#309=CARTESIAN_POINT('Ctrl Pts',(-1.20070678277953,19.05,80.3732387054298));
#310=CARTESIAN_POINT('Ctrl Pts',(1.20070678277953,19.05,80.3732387054298));
#311=CARTESIAN_POINT('Ctrl Pts',(2.4409777274194,18.9346507309927,80.4008755620386));
#312=CARTESIAN_POINT('Ctrl Pts',(4.90531987315207,18.4503985743625,80.5133813838149));
#313=CARTESIAN_POINT('Ctrl Pts',(6.12941872053493,18.0816152848368,80.5981595082494));
#314=CARTESIAN_POINT('Ctrl Pts',(8.4748217639522,17.1082434797462,80.8103713695478));
#315=CARTESIAN_POINT('Ctrl Pts',(9.59807670158264,16.502881362988,80.9377632521954));
#316=CARTESIAN_POINT('Ctrl Pts',(11.6742296707604,15.105645676423,81.2101353416464));
#317=CARTESIAN_POINT('Ctrl Pts',(12.6270967277872,14.3136716354203,81.3548361645564));
#318=CARTESIAN_POINT('Ctrl Pts',(14.3135870098254,12.627181353382,81.633600358539));
#319=CARTESIAN_POINT('Ctrl Pts',(15.1055515334017,11.6743537026271,81.7775352011316));
#320=CARTESIAN_POINT('Ctrl Pts',(16.5028250370487,9.59817624988667,82.0471255475462));
#321=CARTESIAN_POINT('Ctrl Pts',(17.108230525148,8.47485747579086,82.172519735087));
#322=CARTESIAN_POINT('Ctrl Pts',(18.0816504549849,6.12932947878093,82.380686625032));
#323=CARTESIAN_POINT('Ctrl Pts',(18.4504384640085,4.90517142502008,82.4634498851406));
#324=CARTESIAN_POINT('Ctrl Pts',(18.9346723786609,2.4408130073972,82.5731415505731));
#325=CARTESIAN_POINT('Ctrl Pts',(19.05,1.20058628943501,82.6));
#326=CARTESIAN_POINT('Ctrl Pts',(19.05,-1.200586289435,82.6));
#327=CARTESIAN_POINT('Ctrl Pts',(18.9346723786609,-2.44081300739719,82.5731415505731));
#328=CARTESIAN_POINT('Ctrl Pts',(18.4504384640086,-4.90517142502006,82.4634498851406));
#329=CARTESIAN_POINT('Ctrl Pts',(18.0816504549849,-6.12932947878091,82.380686625032));
#330=CARTESIAN_POINT('Ctrl Pts',(17.108230525148,-8.47485747579084,82.172519735087));
#331=CARTESIAN_POINT('Ctrl Pts',(16.5028250370488,-9.59817624988666,82.0471255475462));
#332=CARTESIAN_POINT('Ctrl Pts',(15.1055515334017,-11.6743537026271,81.7775352011316));
#333=CARTESIAN_POINT('Ctrl Pts',(14.3135870098254,-12.627181353382,81.633600358539));
#334=CARTESIAN_POINT('Ctrl Pts',(12.6270967277872,-14.3136716354203,81.3548361645564));
#335=CARTESIAN_POINT('Ctrl Pts',(11.6742296707604,-15.1056456764229,81.2101353416464));
#336=CARTESIAN_POINT('Ctrl Pts',(9.59807670158265,-16.502881362988,80.9377632521954));
#337=CARTESIAN_POINT('Ctrl Pts',(8.47482176395221,-17.1082434797462,80.8103713695478));
#338=CARTESIAN_POINT('Ctrl Pts',(6.12941872053493,-18.0816152848368,80.5981595082494));
#339=CARTESIAN_POINT('Ctrl Pts',(4.90531987315207,-18.4503985743625,80.5133813838149));
#340=CARTESIAN_POINT('Ctrl Pts',(2.4409777274194,-18.9346507309927,80.4008755620386));
#341=CARTESIAN_POINT('Ctrl Pts',(1.20070678277953,-19.05,80.3732387054298));
#342=CARTESIAN_POINT('Ctrl Pts',(-5.55111512312578E-16,-19.05,80.3732387054298));
#343=CARTESIAN_POINT('Origin',(0.,0.,87.5));
#344=CARTESIAN_POINT('Origin',(-170.,0.,0.));
#345=CARTESIAN_POINT('',(-170.,-82.6,-1.01155825609571E-14));
#346=CARTESIAN_POINT('Origin',(-170.,0.,0.));
#347=CARTESIAN_POINT('Origin',(0.,0.,0.));
#348=CARTESIAN_POINT('',(170.,-82.6,-1.01155825609571E-14));
#349=CARTESIAN_POINT('Origin',(170.,0.,0.));
#350=CARTESIAN_POINT('',(0.,-82.6,-1.01155825609571E-14));
#351=CARTESIAN_POINT('Origin',(170.,0.,0.));
#352=UNCERTAINTY_MEASURE_WITH_UNIT(LENGTH_MEASURE(0.01),#356,
'DISTANCE_ACCURACY_VALUE',
'Maximum model space distance between geometric entities at asserted c
onnectivities');
#353=UNCERTAINTY_MEASURE_WITH_UNIT(LENGTH_MEASURE(0.01),#356,
'DISTANCE_ACCURACY_VALUE',
'Maximum model space distance between geometric entities at asserted c
onnectivities');
#354=(
GEOMETRIC_REPRESENTATION_CONTEXT(3)
GLOBAL_UNCERTAINTY_ASSIGNED_CONTEXT((#352))
GLOBAL_UNIT_ASSIGNED_CONTEXT((#356,#358,#359))
REPRESENTATION_CONTEXT('','3D')
);
#355=(
GEOMETRIC_REPRESENTATION_CONTEXT(3)
GLOBAL_UNCERTAINTY_ASSIGNED_CONTEXT((#353))
GLOBAL_UNIT_ASSIGNED_CONTEXT((#356,#358,#359))
REPRESENTATION_CONTEXT('','3D')
);
#356=(
LENGTH_UNIT()
NAMED_UNIT(*)
SI_UNIT(.MILLI.,.METRE.)
);
#357=(
LENGTH_UNIT()
NAMED_UNIT(*)
SI_UNIT(.CENTI.,.METRE.)
);
#358=(
NAMED_UNIT(*)
PLANE_ANGLE_UNIT()
SI_UNIT($,.RADIAN.)
);
#359=(
NAMED_UNIT(*)
SI_UNIT($,.STERADIAN.)
SOLID_ANGLE_UNIT()
);
#360=SHAPE_DEFINITION_REPRESENTATION(#361,#362);
#361=PRODUCT_DEFINITION_SHAPE('',$,#364);
#362=SHAPE_REPRESENTATION('',(#142),#354);
#363=PRODUCT_DEFINITION_CONTEXT('part definition',#368,'design');
#364=PRODUCT_DEFINITION('T-8 60\X\D715','T-8 60\X\D715',#365,#363);
#365=PRODUCT_DEFINITION_FORMATION('',$,#370);
#366=PRODUCT_RELATED_PRODUCT_CATEGORY('T-8 60\X\D715','T-8 60\X\D715',(#370));
#367=APPLICATION_PROTOCOL_DEFINITION('international standard',
'automotive_design',2009,#368);
#368=APPLICATION_CONTEXT(
'Core Data for Automotive Mechanical Design Process');
#369=PRODUCT_CONTEXT('part definition',#368,'mechanical');
#370=PRODUCT('T-8 60\X\D715','T-8 60\X\D715',$,(#369));
#371=PRESENTATION_STYLE_ASSIGNMENT((#372));
#372=SURFACE_STYLE_USAGE(.BOTH.,#375);
#373=SURFACE_STYLE_RENDERING_WITH_PROPERTIES($,#379,(#374));
#374=SURFACE_STYLE_TRANSPARENT(0.);
#375=SURFACE_SIDE_STYLE('',(#376,#373));
#376=SURFACE_STYLE_FILL_AREA(#377);
#377=FILL_AREA_STYLE('',(#378));
#378=FILL_AREA_STYLE_COLOUR('',#379);
#379=COLOUR_RGB('',0.749019607843137,0.749019607843137,0.749019607843137);
ENDSEC;
END-ISO-10303-21;
