ISO-10303-21;
HEADER;
/* Generated by software containing ST-Developer
 * from STEP Tools, Inc. (www.steptools.com) 
 */

FILE_DESCRIPTION(
/* description */ (''),
/* implementation_level */ '2;1');

FILE_NAME(
/* name */ 
'\\\\Tske00\\w\\Work\\TOSTE\\\X2\7D99624B\X0\\\02_\X2\6EB663A5\X0\\\\X2\6EB663A5752830C130FC30BA\X0\\\
T-8\\T-8 50\X\D745.stp',
/* time_stamp */ '2022-04-28T09:43:05+09:00',
/* author */ ('3dcad-eng'),
/* organization */ (''),
/* preprocessor_version */ 'ST-DEVELOPER v18.1',
/* originating_system */ 'Autodesk Inventor 2022',
/* authorisation */ '');

FILE_SCHEMA (('AUTOMOTIVE_DESIGN { 1 0 10303 214 3 1 1 }'));
ENDSEC;

DATA;
#10=MECHANICAL_DESIGN_GEOMETRIC_PRESENTATION_REPRESENTATION('',(#13),#355);
#11=SHAPE_REPRESENTATION_RELATIONSHIP('SRR','None',#362,#12);
#12=ADVANCED_BREP_SHAPE_REPRESENTATION('',(#14),#354);
#13=STYLED_ITEM('',(#371),#14);
#14=MANIFOLD_SOLID_BREP('\X2\30BD30EA30C330C9\X0\1',#123);
#15=PLANE('',#150);
#16=PLANE('',#151);
#17=PLANE('',#155);
#18=FACE_BOUND('',#32,.T.);
#19=FACE_BOUND('',#35,.T.);
#20=FACE_BOUND('',#37,.T.);
#21=FACE_BOUND('',#39,.T.);
#22=FACE_BOUND('',#41,.T.);
#23=FACE_OUTER_BOUND('',#30,.T.);
#24=FACE_OUTER_BOUND('',#31,.T.);
#25=FACE_OUTER_BOUND('',#33,.T.);
#26=FACE_OUTER_BOUND('',#34,.T.);
#27=FACE_OUTER_BOUND('',#36,.T.);
#28=FACE_OUTER_BOUND('',#38,.T.);
#29=FACE_OUTER_BOUND('',#40,.T.);
#30=EDGE_LOOP('',(#84,#85,#86,#87,#88));
#31=EDGE_LOOP('',(#89,#90,#91,#92));
#32=EDGE_LOOP('',(#93,#94));
#33=EDGE_LOOP('',(#95,#96,#97,#98,#99));
#34=EDGE_LOOP('',(#100));
#35=EDGE_LOOP('',(#101));
#36=EDGE_LOOP('',(#102));
#37=EDGE_LOOP('',(#103));
#38=EDGE_LOOP('',(#104,#105,#106,#107));
#39=EDGE_LOOP('',(#108,#109));
#40=EDGE_LOOP('',(#110));
#41=EDGE_LOOP('',(#111));
#42=CIRCLE('',#144,54.15);
#43=CIRCLE('',#146,66.9);
#44=CIRCLE('',#147,66.9);
#45=CIRCLE('',#149,57.15);
#46=CIRCLE('',#152,69.9);
#47=CIRCLE('',#154,69.9);
#48=LINE('',#261,#52);
#49=LINE('',#267,#53);
#50=LINE('',#273,#54);
#51=LINE('',#350,#55);
#52=VECTOR('',#160,54.15);
#53=VECTOR('',#167,66.9);
#54=VECTOR('',#174,57.15);
#55=VECTOR('',#185,69.9);
#56=B_SPLINE_CURVE_WITH_KNOTS('',3,(#192,#193,#194,#195,#196,#197,#198,
#199,#200,#201,#202,#203,#204,#205,#206,#207,#208,#209,#210,#211,#212,#213,
#214,#215,#216,#217,#218,#219,#220,#221,#222,#223,#224,#225,#226,#227,#228,
#229,#230,#231,#232,#233,#234,#235,#236,#237,#238,#239,#240,#241),
 .UNSPECIFIED.,.F.,.F.,(4,2,2,2,2,2,2,2,2,2,2,2,2,2,2,2,2,2,2,2,2,2,2,2,
4),(0.,1.114930917181,2.229861834362,3.344792751543,4.459723668724,5.53728485504526,
6.61484604136651,7.69240722768776,8.76996841400902,9.84752960033027,10.9250907866515,
12.0026519729728,13.080213159294,14.195144076475,15.310074993656,16.425005910837,
17.539936828018,18.654867745199,19.76979866238,20.884729579561,21.999660496742,
23.0772216830633,24.1547828693845,25.2323440557058,26.309905242027),
 .UNSPECIFIED.);
#57=B_SPLINE_CURVE_WITH_KNOTS('',3,(#242,#243,#244,#245,#246,#247,#248,
#249,#250,#251,#252,#253,#254,#255,#256,#257,#258,#259),.UNSPECIFIED.,.F.,
 .F.,(4,2,2,2,2,2,2,2,4),(26.309905242027,27.3874664283483,28.4650276146696,
29.5425888009908,30.6201499873121,31.7350809044931,32.8500118216741,33.9649427388551,
35.0798736560361),.UNSPECIFIED.);
#58=B_SPLINE_CURVE_WITH_KNOTS('',3,(#275,#276,#277,#278,#279,#280,#281,
#282,#283,#284,#285,#286,#287,#288,#289,#290,#291,#292),.UNSPECIFIED.,.F.,
 .F.,(4,2,2,2,2,2,2,2,4),(0.,1.18104481528383,2.36208963056765,3.54313444585148,
4.72417926113531,5.86296237156015,7.00174548198499,8.14052859240983,9.27931170283466),
 .UNSPECIFIED.);
#59=B_SPLINE_CURVE_WITH_KNOTS('',3,(#293,#294,#295,#296,#297,#298,#299,
#300,#301,#302,#303,#304,#305,#306,#307,#308,#309,#310,#311,#312,#313,#314,
#315,#316,#317,#318,#319,#320,#321,#322,#323,#324,#325,#326,#327,#328,#329,
#330,#331,#332,#333,#334,#335,#336,#337,#338,#339,#340,#341,#342),
 .UNSPECIFIED.,.F.,.F.,(4,2,2,2,2,2,2,2,2,2,2,2,2,2,2,2,2,2,2,2,2,2,2,2,
4),(9.27931170283466,10.4180948132595,11.5568779236843,12.6956610341092,
13.834444144534,15.0154889598179,16.1965337751017,17.3775785903855,18.5586234056693,
19.7396682209532,20.920713036237,22.1017578515208,23.2828026668046,24.4215857772295,
25.5603688876543,26.6991519980792,27.837935108504,28.9767182189288,30.1155013293537,
31.2542844397785,32.3930675502034,33.5741123654872,34.755157180771,35.9362019960548,
37.1172468113387),.UNSPECIFIED.);
#60=VERTEX_POINT('',#190);
#61=VERTEX_POINT('',#191);
#62=VERTEX_POINT('',#260);
#63=VERTEX_POINT('',#264);
#64=VERTEX_POINT('',#266);
#65=VERTEX_POINT('',#270);
#66=VERTEX_POINT('',#272);
#67=VERTEX_POINT('',#274);
#68=VERTEX_POINT('',#345);
#69=VERTEX_POINT('',#348);
#70=EDGE_CURVE('',#60,#61,#56,.T.);
#71=EDGE_CURVE('',#61,#60,#57,.T.);
#72=EDGE_CURVE('',#61,#62,#48,.T.);
#73=EDGE_CURVE('',#62,#62,#42,.T.);
#74=EDGE_CURVE('',#63,#63,#43,.T.);
#75=EDGE_CURVE('',#63,#64,#49,.T.);
#76=EDGE_CURVE('',#64,#64,#44,.T.);
#77=EDGE_CURVE('',#65,#65,#45,.T.);
#78=EDGE_CURVE('',#65,#66,#50,.T.);
#79=EDGE_CURVE('',#67,#66,#58,.T.);
#80=EDGE_CURVE('',#66,#67,#59,.T.);
#81=EDGE_CURVE('',#68,#68,#46,.T.);
#82=EDGE_CURVE('',#69,#69,#47,.T.);
#83=EDGE_CURVE('',#69,#68,#51,.T.);
#84=ORIENTED_EDGE('',*,*,#70,.F.);
#85=ORIENTED_EDGE('',*,*,#71,.F.);
#86=ORIENTED_EDGE('',*,*,#72,.T.);
#87=ORIENTED_EDGE('',*,*,#73,.F.);
#88=ORIENTED_EDGE('',*,*,#72,.F.);
#89=ORIENTED_EDGE('',*,*,#74,.F.);
#90=ORIENTED_EDGE('',*,*,#75,.T.);
#91=ORIENTED_EDGE('',*,*,#76,.F.);
#92=ORIENTED_EDGE('',*,*,#75,.F.);
#93=ORIENTED_EDGE('',*,*,#70,.T.);
#94=ORIENTED_EDGE('',*,*,#71,.T.);
#95=ORIENTED_EDGE('',*,*,#77,.F.);
#96=ORIENTED_EDGE('',*,*,#78,.T.);
#97=ORIENTED_EDGE('',*,*,#79,.F.);
#98=ORIENTED_EDGE('',*,*,#80,.F.);
#99=ORIENTED_EDGE('',*,*,#78,.F.);
#100=ORIENTED_EDGE('',*,*,#77,.T.);
#101=ORIENTED_EDGE('',*,*,#73,.T.);
#102=ORIENTED_EDGE('',*,*,#81,.T.);
#103=ORIENTED_EDGE('',*,*,#74,.T.);
#104=ORIENTED_EDGE('',*,*,#82,.F.);
#105=ORIENTED_EDGE('',*,*,#83,.T.);
#106=ORIENTED_EDGE('',*,*,#81,.F.);
#107=ORIENTED_EDGE('',*,*,#83,.F.);
#108=ORIENTED_EDGE('',*,*,#79,.T.);
#109=ORIENTED_EDGE('',*,*,#80,.T.);
#110=ORIENTED_EDGE('',*,*,#82,.T.);
#111=ORIENTED_EDGE('',*,*,#76,.T.);
#112=CYLINDRICAL_SURFACE('',#143,54.15);
#113=CYLINDRICAL_SURFACE('',#145,66.9);
#114=CYLINDRICAL_SURFACE('',#148,57.15);
#115=CYLINDRICAL_SURFACE('',#153,69.9);
#116=ADVANCED_FACE('',(#23),#112,.F.);
#117=ADVANCED_FACE('',(#24,#18),#113,.F.);
#118=ADVANCED_FACE('',(#25),#114,.T.);
#119=ADVANCED_FACE('',(#26,#19),#15,.T.);
#120=ADVANCED_FACE('',(#27,#20),#16,.F.);
#121=ADVANCED_FACE('',(#28,#21),#115,.T.);
#122=ADVANCED_FACE('',(#29,#22),#17,.T.);
#123=CLOSED_SHELL('',(#116,#117,#118,#119,#120,#121,#122));
#124=DERIVED_UNIT_ELEMENT(#126,1.);
#125=DERIVED_UNIT_ELEMENT(#357,-3.);
#126=(
MASS_UNIT()
NAMED_UNIT(*)
SI_UNIT($,.GRAM.)
);
#127=DERIVED_UNIT((#124,#125));
#128=MEASURE_REPRESENTATION_ITEM('density measure',
POSITIVE_RATIO_MEASURE(1.),#127);
#129=PROPERTY_DEFINITION_REPRESENTATION(#134,#131);
#130=PROPERTY_DEFINITION_REPRESENTATION(#135,#132);
#131=REPRESENTATION('material name',(#133),#354);
#132=REPRESENTATION('density',(#128),#354);
#133=DESCRIPTIVE_REPRESENTATION_ITEM('\X2\4E00822C\X0\','\X2\4E00822C\X0\');
#134=PROPERTY_DEFINITION('material property','material name',#364);
#135=PROPERTY_DEFINITION('material property','density of part',#364);
#136=DATE_TIME_ROLE('creation_date');
#137=APPLIED_DATE_AND_TIME_ASSIGNMENT(#138,#136,(#364));
#138=DATE_AND_TIME(#139,#140);
#139=CALENDAR_DATE(2022,31,3);
#140=LOCAL_TIME(0,0,0.,#141);
#141=COORDINATED_UNIVERSAL_TIME_OFFSET(0,0,.BEHIND.);
#142=AXIS2_PLACEMENT_3D('placement',#188,#156,#157);
#143=AXIS2_PLACEMENT_3D('',#189,#158,#159);
#144=AXIS2_PLACEMENT_3D('',#262,#161,#162);
#145=AXIS2_PLACEMENT_3D('',#263,#163,#164);
#146=AXIS2_PLACEMENT_3D('',#265,#165,#166);
#147=AXIS2_PLACEMENT_3D('',#268,#168,#169);
#148=AXIS2_PLACEMENT_3D('',#269,#170,#171);
#149=AXIS2_PLACEMENT_3D('',#271,#172,#173);
#150=AXIS2_PLACEMENT_3D('',#343,#175,#176);
#151=AXIS2_PLACEMENT_3D('',#344,#177,#178);
#152=AXIS2_PLACEMENT_3D('',#346,#179,#180);
#153=AXIS2_PLACEMENT_3D('',#347,#181,#182);
#154=AXIS2_PLACEMENT_3D('',#349,#183,#184);
#155=AXIS2_PLACEMENT_3D('',#351,#186,#187);
#156=DIRECTION('axis',(0.,0.,1.));
#157=DIRECTION('refdir',(1.,0.,0.));
#158=DIRECTION('center_axis',(0.,0.,1.));
#159=DIRECTION('ref_axis',(1.,0.,0.));
#160=DIRECTION('',(0.,0.,1.));
#161=DIRECTION('center_axis',(0.,0.,-1.));
#162=DIRECTION('ref_axis',(1.,0.,0.));
#163=DIRECTION('center_axis',(1.,0.,0.));
#164=DIRECTION('ref_axis',(0.,1.,0.));
#165=DIRECTION('center_axis',(1.,0.,0.));
#166=DIRECTION('ref_axis',(0.,1.,0.));
#167=DIRECTION('',(1.,0.,0.));
#168=DIRECTION('center_axis',(-1.,0.,0.));
#169=DIRECTION('ref_axis',(0.,1.,0.));
#170=DIRECTION('center_axis',(0.,0.,1.));
#171=DIRECTION('ref_axis',(1.,0.,0.));
#172=DIRECTION('center_axis',(0.,0.,1.));
#173=DIRECTION('ref_axis',(1.,0.,0.));
#174=DIRECTION('',(0.,0.,-1.));
#175=DIRECTION('center_axis',(0.,0.,1.));
#176=DIRECTION('ref_axis',(1.,0.,0.));
#177=DIRECTION('center_axis',(1.,0.,0.));
#178=DIRECTION('ref_axis',(0.,0.,-1.));
#179=DIRECTION('center_axis',(-1.,0.,0.));
#180=DIRECTION('ref_axis',(0.,1.,0.));
#181=DIRECTION('center_axis',(1.,0.,0.));
#182=DIRECTION('ref_axis',(0.,1.,0.));
#183=DIRECTION('center_axis',(1.,0.,0.));
#184=DIRECTION('ref_axis',(0.,1.,0.));
#185=DIRECTION('',(-1.,0.,0.));
#186=DIRECTION('center_axis',(1.,0.,0.));
#187=DIRECTION('ref_axis',(0.,0.,-1.));
#188=CARTESIAN_POINT('',(0.,0.,0.));
#189=CARTESIAN_POINT('Origin',(0.,0.,0.));
#190=CARTESIAN_POINT('',(2.22044604925031E-15,-54.15,39.2859707783835));
#191=CARTESIAN_POINT('',(-54.15,1.49378651840111E-17,66.9));
#192=CARTESIAN_POINT('Ctrl Pts',(2.22044604925031E-15,-54.15,39.2859707783835));
#193=CARTESIAN_POINT('Ctrl Pts',(3.71643639060334,-54.15,39.2859707783835));
#194=CARTESIAN_POINT('Ctrl Pts',(7.3907605706315,-53.7658713048091,39.8282426579697));
#195=CARTESIAN_POINT('Ctrl Pts',(14.4989921171048,-52.29886707355,41.7359116791549));
#196=CARTESIAN_POINT('Ctrl Pts',(17.9357373365215,-51.2162958376668,43.0909534861127));
#197=CARTESIAN_POINT('Ctrl Pts',(24.4624606067318,-48.439525924861,46.1903838069369));
#198=CARTESIAN_POINT('Ctrl Pts',(27.5565926230355,-46.7426570599535,47.9334108147658));
#199=CARTESIAN_POINT('Ctrl Pts',(33.2924472219364,-42.8468755314437,51.4454382933567));
#200=CARTESIAN_POINT('Ctrl Pts',(35.9332926655265,-40.6463717369766,53.2141060761287));
#201=CARTESIAN_POINT('Ctrl Pts',(40.5673863515565,-36.0122780509466,56.4485616400653));
#202=CARTESIAN_POINT('Ctrl Pts',(42.7479806155851,-33.419315583442,58.0440322319973));
#203=CARTESIAN_POINT('Ctrl Pts',(46.6605597573506,-27.6953545734125,60.9830112985335));
#204=CARTESIAN_POINT('Ctrl Pts',(48.3926036696468,-24.5638554573783,62.3254661481845));
#205=CARTESIAN_POINT('Ctrl Pts',(51.2225334853721,-17.9298434824311,64.5474054612069));
#206=CARTESIAN_POINT('Ctrl Pts',(52.3228714011149,-14.419558522767,65.4284387925285));
#207=CARTESIAN_POINT('Ctrl Pts',(53.7869319097921,-7.25068931431662,66.6050431682203));
#208=CARTESIAN_POINT('Ctrl Pts',(54.15,-3.59187062107085,66.9));
#209=CARTESIAN_POINT('Ctrl Pts',(54.15,3.59187062107084,66.9));
#210=CARTESIAN_POINT('Ctrl Pts',(53.7869319097921,7.25068931431661,66.6050431682203));
#211=CARTESIAN_POINT('Ctrl Pts',(52.3228714011149,14.419558522767,65.4284387925285));
#212=CARTESIAN_POINT('Ctrl Pts',(51.2225334853721,17.9298434824311,64.5474054612069));
#213=CARTESIAN_POINT('Ctrl Pts',(48.3926036696468,24.5638554573783,62.3254661481845));
#214=CARTESIAN_POINT('Ctrl Pts',(46.6605597573506,27.6953545734125,60.9830112985335));
#215=CARTESIAN_POINT('Ctrl Pts',(42.7479806155851,33.419315583442,58.0440322319973));
#216=CARTESIAN_POINT('Ctrl Pts',(40.5673863515565,36.0122780509466,56.4485616400653));
#217=CARTESIAN_POINT('Ctrl Pts',(35.9332926655265,40.6463717369766,53.2141060761287));
#218=CARTESIAN_POINT('Ctrl Pts',(33.2924472219364,42.8468755314437,51.4454382933567));
#219=CARTESIAN_POINT('Ctrl Pts',(27.5565926230355,46.7426570599535,47.9334108147658));
#220=CARTESIAN_POINT('Ctrl Pts',(24.4624606067318,48.439525924861,46.1903838069369));
#221=CARTESIAN_POINT('Ctrl Pts',(17.9357373365215,51.2162958376668,43.0909534861127));
#222=CARTESIAN_POINT('Ctrl Pts',(14.4989921171048,52.29886707355,41.7359116791549));
#223=CARTESIAN_POINT('Ctrl Pts',(7.39076057063149,53.7658713048091,39.8282426579697));
#224=CARTESIAN_POINT('Ctrl Pts',(3.71643639060333,54.15,39.2859707783835));
#225=CARTESIAN_POINT('Ctrl Pts',(-3.71643639060333,54.15,39.2859707783835));
#226=CARTESIAN_POINT('Ctrl Pts',(-7.3907605706315,53.7658713048091,39.8282426579697));
#227=CARTESIAN_POINT('Ctrl Pts',(-14.4989921171048,52.29886707355,41.7359116791549));
#228=CARTESIAN_POINT('Ctrl Pts',(-17.9357373365215,51.2162958376668,43.0909534861127));
#229=CARTESIAN_POINT('Ctrl Pts',(-24.4624606067318,48.439525924861,46.1903838069369));
#230=CARTESIAN_POINT('Ctrl Pts',(-27.5565926230355,46.7426570599535,47.9334108147658));
#231=CARTESIAN_POINT('Ctrl Pts',(-33.2924472219364,42.8468755314437,51.4454382933567));
#232=CARTESIAN_POINT('Ctrl Pts',(-35.9332926655265,40.6463717369766,53.2141060761287));
#233=CARTESIAN_POINT('Ctrl Pts',(-40.5673863515565,36.0122780509466,56.4485616400653));
#234=CARTESIAN_POINT('Ctrl Pts',(-42.7479806155851,33.419315583442,58.0440322319973));
#235=CARTESIAN_POINT('Ctrl Pts',(-46.6605597573506,27.6953545734125,60.9830112985335));
#236=CARTESIAN_POINT('Ctrl Pts',(-48.3926036696468,24.5638554573783,62.3254661481845));
#237=CARTESIAN_POINT('Ctrl Pts',(-51.2225334853721,17.9298434824311,64.5474054612069));
#238=CARTESIAN_POINT('Ctrl Pts',(-52.3228714011149,14.419558522767,65.4284387925285));
#239=CARTESIAN_POINT('Ctrl Pts',(-53.7869319097921,7.25068931431664,66.6050431682203));
#240=CARTESIAN_POINT('Ctrl Pts',(-54.15,3.59187062107086,66.9));
#241=CARTESIAN_POINT('Ctrl Pts',(-54.15,7.7715611723761E-15,66.9));
#242=CARTESIAN_POINT('Ctrl Pts',(-54.15,7.7715611723761E-15,66.9));
#243=CARTESIAN_POINT('Ctrl Pts',(-54.15,-3.59187062107084,66.9));
#244=CARTESIAN_POINT('Ctrl Pts',(-53.7869319097921,-7.25068931431663,66.6050431682203));
#245=CARTESIAN_POINT('Ctrl Pts',(-52.3228714011149,-14.419558522767,65.4284387925285));
#246=CARTESIAN_POINT('Ctrl Pts',(-51.2225334853721,-17.9298434824311,64.5474054612069));
#247=CARTESIAN_POINT('Ctrl Pts',(-48.3926036696468,-24.5638554573783,62.3254661481845));
#248=CARTESIAN_POINT('Ctrl Pts',(-46.6605597573506,-27.6953545734125,60.9830112985335));
#249=CARTESIAN_POINT('Ctrl Pts',(-42.7479806155851,-33.419315583442,58.0440322319973));
#250=CARTESIAN_POINT('Ctrl Pts',(-40.5673863515565,-36.0122780509466,56.4485616400653));
#251=CARTESIAN_POINT('Ctrl Pts',(-35.9332926655265,-40.6463717369766,53.2141060761287));
#252=CARTESIAN_POINT('Ctrl Pts',(-33.2924472219365,-42.8468755314437,51.4454382933567));
#253=CARTESIAN_POINT('Ctrl Pts',(-27.5565926230355,-46.7426570599535,47.9334108147658));
#254=CARTESIAN_POINT('Ctrl Pts',(-24.4624606067318,-48.439525924861,46.1903838069369));
#255=CARTESIAN_POINT('Ctrl Pts',(-17.9357373365215,-51.2162958376668,43.0909534861127));
#256=CARTESIAN_POINT('Ctrl Pts',(-14.4989921171048,-52.29886707355,41.7359116791549));
#257=CARTESIAN_POINT('Ctrl Pts',(-7.39076057063154,-53.7658713048091,39.8282426579697));
#258=CARTESIAN_POINT('Ctrl Pts',(-3.71643639060335,-54.15,39.2859707783835));
#259=CARTESIAN_POINT('Ctrl Pts',(-1.11022302462516E-15,-54.15,39.2859707783835));
#260=CARTESIAN_POINT('',(-54.15,6.63146241738292E-15,77.));
#261=CARTESIAN_POINT('',(-54.15,-6.63146241738292E-15,0.));
#262=CARTESIAN_POINT('Origin',(0.,0.,77.));
#263=CARTESIAN_POINT('Origin',(0.,0.,0.));
#264=CARTESIAN_POINT('',(-145.,-66.9,-8.19288708629579E-15));
#265=CARTESIAN_POINT('Origin',(-145.,0.,0.));
#266=CARTESIAN_POINT('',(145.,-66.9,8.19288708629579E-15));
#267=CARTESIAN_POINT('',(0.,-66.9,-8.19288708629579E-15));
#268=CARTESIAN_POINT('Origin',(145.,0.,0.));
#269=CARTESIAN_POINT('Origin',(0.,0.,0.));
#270=CARTESIAN_POINT('',(-57.15,-6.99885645712712E-15,77.));
#271=CARTESIAN_POINT('Origin',(0.,0.,77.));
#272=CARTESIAN_POINT('',(-57.15,-7.94032032706419E-15,69.9));
#273=CARTESIAN_POINT('',(-57.15,-6.99885645712712E-15,0.));
#274=CARTESIAN_POINT('',(-1.11022302462516E-15,-57.15,40.2478260282466));
#275=CARTESIAN_POINT('Ctrl Pts',(-1.11022302462516E-15,-57.15,40.2478260282466));
#276=CARTESIAN_POINT('Ctrl Pts',(-3.93681605094609,-57.15,40.2478260282466));
#277=CARTESIAN_POINT('Ctrl Pts',(-7.81794811410067,-56.7421016632153,40.8413738655849));
#278=CARTESIAN_POINT('Ctrl Pts',(-15.3181107948836,-55.1918644871897,42.9131915135036));
#279=CARTESIAN_POINT('Ctrl Pts',(-18.9403376315245,-54.0496709035185,44.3799822813549));
#280=CARTESIAN_POINT('Ctrl Pts',(-25.8212310569644,-51.1211043553228,47.7240243169167));
#281=CARTESIAN_POINT('Ctrl Pts',(-29.083678802366,-49.3319200753199,49.5999417572171));
#282=CARTESIAN_POINT('Ctrl Pts',(-35.1347305788186,-45.2222225972811,53.3736184582548));
#283=CARTESIAN_POINT('Ctrl Pts',(-37.9222991834108,-42.9000059062115,55.2711825711324));
#284=CARTESIAN_POINT('Ctrl Pts',(-42.8109464693166,-38.0113586203057,58.7349707886429));
#285=CARTESIAN_POINT('Ctrl Pts',(-45.1102413422521,-35.2782705047816,60.4402761156949));
#286=CARTESIAN_POINT('Ctrl Pts',(-49.2379694962973,-29.2423084725077,63.580427351248));
#287=CARTESIAN_POINT('Ctrl Pts',(-51.0664498802267,-25.938901245698,65.0141861038166));
#288=CARTESIAN_POINT('Ctrl Pts',(-54.0551870345805,-18.9379463747827,67.3871301571952));
#289=CARTESIAN_POINT('Ctrl Pts',(-55.2180442025139,-15.2321542037453,68.3280021840234));
#290=CARTESIAN_POINT('Ctrl Pts',(-56.7657973591879,-7.66127780379094,69.5847628920069));
#291=CARTESIAN_POINT('Ctrl Pts',(-57.15,-3.79594370141614,69.9));
#292=CARTESIAN_POINT('Ctrl Pts',(-57.15,-5.55111512312578E-15,69.9));
#293=CARTESIAN_POINT('Ctrl Pts',(-57.15,-8.88178419700125E-15,69.9));
#294=CARTESIAN_POINT('Ctrl Pts',(-57.15,3.79594370141612,69.9));
#295=CARTESIAN_POINT('Ctrl Pts',(-56.7657973591879,7.66127780379092,69.5847628920069));
#296=CARTESIAN_POINT('Ctrl Pts',(-55.2180442025139,15.2321542037453,68.3280021840234));
#297=CARTESIAN_POINT('Ctrl Pts',(-54.0551870345805,18.9379463747827,67.3871301571952));
#298=CARTESIAN_POINT('Ctrl Pts',(-51.0664498802268,25.938901245698,65.0141861038166));
#299=CARTESIAN_POINT('Ctrl Pts',(-49.2379694962973,29.2423084725077,63.580427351248));
#300=CARTESIAN_POINT('Ctrl Pts',(-45.1102413422522,35.2782705047816,60.4402761156949));
#301=CARTESIAN_POINT('Ctrl Pts',(-42.8109464693167,38.0113586203057,58.7349707886429));
#302=CARTESIAN_POINT('Ctrl Pts',(-37.9222991834109,42.9000059062115,55.2711825711324));
#303=CARTESIAN_POINT('Ctrl Pts',(-35.1347305788187,45.2222225972811,53.3736184582548));
#304=CARTESIAN_POINT('Ctrl Pts',(-29.083678802366,49.3319200753198,49.5999417572171));
#305=CARTESIAN_POINT('Ctrl Pts',(-25.8212310569644,51.1211043553228,47.7240243169167));
#306=CARTESIAN_POINT('Ctrl Pts',(-18.9403376315245,54.0496709035185,44.3799822813549));
#307=CARTESIAN_POINT('Ctrl Pts',(-15.3181107948836,55.1918644871897,42.9131915135036));
#308=CARTESIAN_POINT('Ctrl Pts',(-7.81794811410068,56.7421016632153,40.8413738655849));
#309=CARTESIAN_POINT('Ctrl Pts',(-3.9368160509461,57.15,40.2478260282466));
#310=CARTESIAN_POINT('Ctrl Pts',(3.93681605094609,57.15,40.2478260282466));
#311=CARTESIAN_POINT('Ctrl Pts',(7.81794811410067,56.7421016632153,40.8413738655849));
#312=CARTESIAN_POINT('Ctrl Pts',(15.3181107948836,55.1918644871897,42.9131915135036));
#313=CARTESIAN_POINT('Ctrl Pts',(18.9403376315245,54.0496709035185,44.3799822813549));
#314=CARTESIAN_POINT('Ctrl Pts',(25.8212310569644,51.1211043553228,47.7240243169167));
#315=CARTESIAN_POINT('Ctrl Pts',(29.083678802366,49.3319200753199,49.5999417572171));
#316=CARTESIAN_POINT('Ctrl Pts',(35.1347305788186,45.2222225972811,53.3736184582548));
#317=CARTESIAN_POINT('Ctrl Pts',(37.9222991834108,42.9000059062115,55.2711825711324));
#318=CARTESIAN_POINT('Ctrl Pts',(42.8109464693166,38.0113586203057,58.7349707886429));
#319=CARTESIAN_POINT('Ctrl Pts',(45.1102413422521,35.2782705047816,60.4402761156949));
#320=CARTESIAN_POINT('Ctrl Pts',(49.2379694962973,29.2423084725077,63.580427351248));
#321=CARTESIAN_POINT('Ctrl Pts',(51.0664498802267,25.9389012456981,65.0141861038166));
#322=CARTESIAN_POINT('Ctrl Pts',(54.0551870345805,18.9379463747827,67.3871301571952));
#323=CARTESIAN_POINT('Ctrl Pts',(55.2180442025139,15.2321542037453,68.3280021840234));
#324=CARTESIAN_POINT('Ctrl Pts',(56.7657973591878,7.66127780379094,69.5847628920069));
#325=CARTESIAN_POINT('Ctrl Pts',(57.15,3.79594370141615,69.9));
#326=CARTESIAN_POINT('Ctrl Pts',(57.15,-3.79594370141613,69.9));
#327=CARTESIAN_POINT('Ctrl Pts',(56.7657973591879,-7.66127780379094,69.5847628920069));
#328=CARTESIAN_POINT('Ctrl Pts',(55.2180442025139,-15.2321542037453,68.3280021840234));
#329=CARTESIAN_POINT('Ctrl Pts',(54.0551870345805,-18.9379463747827,67.3871301571952));
#330=CARTESIAN_POINT('Ctrl Pts',(51.0664498802268,-25.938901245698,65.0141861038166));
#331=CARTESIAN_POINT('Ctrl Pts',(49.2379694962973,-29.2423084725077,63.580427351248));
#332=CARTESIAN_POINT('Ctrl Pts',(45.1102413422522,-35.2782705047816,60.4402761156949));
#333=CARTESIAN_POINT('Ctrl Pts',(42.8109464693167,-38.0113586203057,58.7349707886429));
#334=CARTESIAN_POINT('Ctrl Pts',(37.9222991834109,-42.9000059062115,55.2711825711324));
#335=CARTESIAN_POINT('Ctrl Pts',(35.1347305788187,-45.2222225972811,53.3736184582548));
#336=CARTESIAN_POINT('Ctrl Pts',(29.0836788023661,-49.3319200753198,49.5999417572171));
#337=CARTESIAN_POINT('Ctrl Pts',(25.8212310569644,-51.1211043553228,47.7240243169167));
#338=CARTESIAN_POINT('Ctrl Pts',(18.9403376315245,-54.0496709035185,44.3799822813549));
#339=CARTESIAN_POINT('Ctrl Pts',(15.3181107948836,-55.1918644871897,42.9131915135036));
#340=CARTESIAN_POINT('Ctrl Pts',(7.8179481141007,-56.7421016632153,40.8413738655849));
#341=CARTESIAN_POINT('Ctrl Pts',(3.93681605094611,-57.15,40.2478260282466));
#342=CARTESIAN_POINT('Ctrl Pts',(1.11022302462516E-15,-57.15,40.2478260282466));
#343=CARTESIAN_POINT('Origin',(0.,0.,77.));
#344=CARTESIAN_POINT('Origin',(-145.,0.,0.));
#345=CARTESIAN_POINT('',(-145.,-69.9,-8.56028112604E-15));
#346=CARTESIAN_POINT('Origin',(-145.,0.,0.));
#347=CARTESIAN_POINT('Origin',(0.,0.,0.));
#348=CARTESIAN_POINT('',(145.,-69.9,-8.56028112604E-15));
#349=CARTESIAN_POINT('Origin',(145.,0.,0.));
#350=CARTESIAN_POINT('',(0.,-69.9,-8.56028112604E-15));
#351=CARTESIAN_POINT('Origin',(145.,0.,0.));
#352=UNCERTAINTY_MEASURE_WITH_UNIT(LENGTH_MEASURE(0.01),#356,
'DISTANCE_ACCURACY_VALUE',
'Maximum model space distance between geometric entities at asserted c
onnectivities');
#353=UNCERTAINTY_MEASURE_WITH_UNIT(LENGTH_MEASURE(0.01),#356,
'DISTANCE_ACCURACY_VALUE',
'Maximum model space distance between geometric entities at asserted c
onnectivities');
#354=(
GEOMETRIC_REPRESENTATION_CONTEXT(3)
GLOBAL_UNCERTAINTY_ASSIGNED_CONTEXT((#352))
GLOBAL_UNIT_ASSIGNED_CONTEXT((#356,#358,#359))
REPRESENTATION_CONTEXT('','3D')
);
#355=(
GEOMETRIC_REPRESENTATION_CONTEXT(3)
GLOBAL_UNCERTAINTY_ASSIGNED_CONTEXT((#353))
GLOBAL_UNIT_ASSIGNED_CONTEXT((#356,#358,#359))
REPRESENTATION_CONTEXT('','3D')
);
#356=(
LENGTH_UNIT()
NAMED_UNIT(*)
SI_UNIT(.MILLI.,.METRE.)
);
#357=(
LENGTH_UNIT()
NAMED_UNIT(*)
SI_UNIT(.CENTI.,.METRE.)
);
#358=(
NAMED_UNIT(*)
PLANE_ANGLE_UNIT()
SI_UNIT($,.RADIAN.)
);
#359=(
NAMED_UNIT(*)
SI_UNIT($,.STERADIAN.)
SOLID_ANGLE_UNIT()
);
#360=SHAPE_DEFINITION_REPRESENTATION(#361,#362);
#361=PRODUCT_DEFINITION_SHAPE('',$,#364);
#362=SHAPE_REPRESENTATION('',(#142),#354);
#363=PRODUCT_DEFINITION_CONTEXT('part definition',#368,'design');
#364=PRODUCT_DEFINITION('T-8 50\X\D745','T-8 50\X\D745',#365,#363);
#365=PRODUCT_DEFINITION_FORMATION('',$,#370);
#366=PRODUCT_RELATED_PRODUCT_CATEGORY('T-8 50\X\D745','T-8 50\X\D745',(#370));
#367=APPLICATION_PROTOCOL_DEFINITION('international standard',
'automotive_design',2009,#368);
#368=APPLICATION_CONTEXT(
'Core Data for Automotive Mechanical Design Process');
#369=PRODUCT_CONTEXT('part definition',#368,'mechanical');
#370=PRODUCT('T-8 50\X\D745','T-8 50\X\D745',$,(#369));
#371=PRESENTATION_STYLE_ASSIGNMENT((#372));
#372=SURFACE_STYLE_USAGE(.BOTH.,#375);
#373=SURFACE_STYLE_RENDERING_WITH_PROPERTIES($,#379,(#374));
#374=SURFACE_STYLE_TRANSPARENT(0.);
#375=SURFACE_SIDE_STYLE('',(#376,#373));
#376=SURFACE_STYLE_FILL_AREA(#377);
#377=FILL_AREA_STYLE('',(#378));
#378=FILL_AREA_STYLE_COLOUR('',#379);
#379=COLOUR_RGB('',0.749019607843137,0.749019607843137,0.749019607843137);
ENDSEC;
END-ISO-10303-21;
