ISO-10303-21;
HEADER;
/* Generated by software containing ST-Developer
 * from STEP Tools, Inc. (www.steptools.com) 
 */

FILE_DESCRIPTION(
/* description */ (''),
/* implementation_level */ '2;1');

FILE_NAME(
/* name */ 
'\\\\Tske00\\w\\Work\\TOSTE\\\X2\7D99624B\X0\\\02_\X2\6EB663A5\X0\\\\X2\6EB663A5752830C130FC30BA\X0\\\
T-8\\T-8 50\X\D710.stp',
/* time_stamp */ '2022-04-12T16:10:46+09:00',
/* author */ ('3dcad-eng'),
/* organization */ (''),
/* preprocessor_version */ 'ST-DEVELOPER v18.1',
/* originating_system */ 'Autodesk Inventor 2022',
/* authorisation */ '');

FILE_SCHEMA (('AUTOMOTIVE_DESIGN { 1 0 10303 214 3 1 1 }'));
ENDSEC;

DATA;
#10=MECHANICAL_DESIGN_GEOMETRIC_PRESENTATION_REPRESENTATION('',(#13),#291);
#11=SHAPE_REPRESENTATION_RELATIONSHIP('SRR','None',#298,#12);
#12=ADVANCED_BREP_SHAPE_REPRESENTATION('',(#14),#290);
#13=STYLED_ITEM('',(#307),#14);
#14=MANIFOLD_SOLID_BREP('\X2\30BD30EA30C330C9\X0\1',#123);
#15=PLANE('',#150);
#16=PLANE('',#151);
#17=PLANE('',#155);
#18=FACE_BOUND('',#32,.T.);
#19=FACE_BOUND('',#35,.T.);
#20=FACE_BOUND('',#37,.T.);
#21=FACE_BOUND('',#39,.T.);
#22=FACE_BOUND('',#41,.T.);
#23=FACE_OUTER_BOUND('',#30,.T.);
#24=FACE_OUTER_BOUND('',#31,.T.);
#25=FACE_OUTER_BOUND('',#33,.T.);
#26=FACE_OUTER_BOUND('',#34,.T.);
#27=FACE_OUTER_BOUND('',#36,.T.);
#28=FACE_OUTER_BOUND('',#38,.T.);
#29=FACE_OUTER_BOUND('',#40,.T.);
#30=EDGE_LOOP('',(#84,#85,#86,#87,#88));
#31=EDGE_LOOP('',(#89,#90,#91,#92));
#32=EDGE_LOOP('',(#93,#94));
#33=EDGE_LOOP('',(#95,#96,#97,#98,#99));
#34=EDGE_LOOP('',(#100));
#35=EDGE_LOOP('',(#101));
#36=EDGE_LOOP('',(#102));
#37=EDGE_LOOP('',(#103));
#38=EDGE_LOOP('',(#104,#105,#106,#107));
#39=EDGE_LOOP('',(#108,#109));
#40=EDGE_LOOP('',(#110));
#41=EDGE_LOOP('',(#111));
#42=CIRCLE('',#144,11.5);
#43=CIRCLE('',#146,66.9);
#44=CIRCLE('',#147,66.9);
#45=CIRCLE('',#149,12.7);
#46=CIRCLE('',#152,69.9);
#47=CIRCLE('',#154,69.9);
#48=LINE('',#229,#52);
#49=LINE('',#235,#53);
#50=LINE('',#241,#54);
#51=LINE('',#286,#55);
#52=VECTOR('',#160,11.5);
#53=VECTOR('',#167,66.9);
#54=VECTOR('',#174,12.7);
#55=VECTOR('',#185,69.9);
#56=B_SPLINE_CURVE_WITH_KNOTS('',3,(#192,#193,#194,#195,#196,#197,#198,
#199,#200,#201,#202,#203,#204,#205,#206,#207,#208,#209,#210,#211,#212,#213,
#214,#215,#216,#217),.UNSPECIFIED.,.F.,.F.,(4,2,2,2,2,2,2,2,2,2,2,2,4),
(0.,0.434124229446072,0.868248458892143,1.30235954533667,1.7364706317812,
2.17058171822573,2.60469280467026,3.03881703411633,3.4729412635624,3.90706549300848,
4.34118972245455,4.77530080889908,5.2094118953436),.UNSPECIFIED.);
#57=B_SPLINE_CURVE_WITH_KNOTS('',3,(#218,#219,#220,#221,#222,#223,#224,
#225,#226,#227),.UNSPECIFIED.,.F.,.F.,(4,2,2,2,4),(5.2094118953436,5.64352298178813,
6.07763406823266,6.51175829767874,6.94588252712481),.UNSPECIFIED.);
#58=B_SPLINE_CURVE_WITH_KNOTS('',3,(#243,#244,#245,#246,#247,#248,#249,
#250,#251,#252),.UNSPECIFIED.,.F.,.F.,(4,2,2,2,4),(0.,0.479547986582319,
0.959095973164638,1.43862578088559,1.91815558860654),.UNSPECIFIED.);
#59=B_SPLINE_CURVE_WITH_KNOTS('',3,(#253,#254,#255,#256,#257,#258,#259,
#260,#261,#262,#263,#264,#265,#266,#267,#268,#269,#270,#271,#272,#273,#274,
#275,#276,#277,#278),.UNSPECIFIED.,.F.,.F.,(4,2,2,2,2,2,2,2,2,2,2,2,4),
(1.91815558860654,2.39768539632749,2.87721520404844,3.35676319063076,3.83631117721308,
4.3158591637954,4.79540715037772,5.27493695809867,5.75446676581962,6.23399657354057,
6.71352638126152,7.19307436784384,7.67262235442616),.UNSPECIFIED.);
#60=VERTEX_POINT('',#190);
#61=VERTEX_POINT('',#191);
#62=VERTEX_POINT('',#228);
#63=VERTEX_POINT('',#232);
#64=VERTEX_POINT('',#234);
#65=VERTEX_POINT('',#238);
#66=VERTEX_POINT('',#240);
#67=VERTEX_POINT('',#242);
#68=VERTEX_POINT('',#281);
#69=VERTEX_POINT('',#284);
#70=EDGE_CURVE('',#60,#61,#56,.T.);
#71=EDGE_CURVE('',#61,#60,#57,.T.);
#72=EDGE_CURVE('',#61,#62,#48,.T.);
#73=EDGE_CURVE('',#62,#62,#42,.T.);
#74=EDGE_CURVE('',#63,#63,#43,.T.);
#75=EDGE_CURVE('',#63,#64,#49,.T.);
#76=EDGE_CURVE('',#64,#64,#44,.T.);
#77=EDGE_CURVE('',#65,#65,#45,.T.);
#78=EDGE_CURVE('',#65,#66,#50,.T.);
#79=EDGE_CURVE('',#67,#66,#58,.T.);
#80=EDGE_CURVE('',#66,#67,#59,.T.);
#81=EDGE_CURVE('',#68,#68,#46,.T.);
#82=EDGE_CURVE('',#69,#69,#47,.T.);
#83=EDGE_CURVE('',#69,#68,#51,.T.);
#84=ORIENTED_EDGE('',*,*,#70,.F.);
#85=ORIENTED_EDGE('',*,*,#71,.F.);
#86=ORIENTED_EDGE('',*,*,#72,.T.);
#87=ORIENTED_EDGE('',*,*,#73,.F.);
#88=ORIENTED_EDGE('',*,*,#72,.F.);
#89=ORIENTED_EDGE('',*,*,#74,.F.);
#90=ORIENTED_EDGE('',*,*,#75,.T.);
#91=ORIENTED_EDGE('',*,*,#76,.F.);
#92=ORIENTED_EDGE('',*,*,#75,.F.);
#93=ORIENTED_EDGE('',*,*,#70,.T.);
#94=ORIENTED_EDGE('',*,*,#71,.T.);
#95=ORIENTED_EDGE('',*,*,#77,.F.);
#96=ORIENTED_EDGE('',*,*,#78,.T.);
#97=ORIENTED_EDGE('',*,*,#79,.F.);
#98=ORIENTED_EDGE('',*,*,#80,.F.);
#99=ORIENTED_EDGE('',*,*,#78,.F.);
#100=ORIENTED_EDGE('',*,*,#77,.T.);
#101=ORIENTED_EDGE('',*,*,#73,.T.);
#102=ORIENTED_EDGE('',*,*,#81,.T.);
#103=ORIENTED_EDGE('',*,*,#74,.T.);
#104=ORIENTED_EDGE('',*,*,#82,.F.);
#105=ORIENTED_EDGE('',*,*,#83,.T.);
#106=ORIENTED_EDGE('',*,*,#81,.F.);
#107=ORIENTED_EDGE('',*,*,#83,.F.);
#108=ORIENTED_EDGE('',*,*,#79,.T.);
#109=ORIENTED_EDGE('',*,*,#80,.T.);
#110=ORIENTED_EDGE('',*,*,#82,.T.);
#111=ORIENTED_EDGE('',*,*,#76,.T.);
#112=CYLINDRICAL_SURFACE('',#143,11.5);
#113=CYLINDRICAL_SURFACE('',#145,66.9);
#114=CYLINDRICAL_SURFACE('',#148,12.7);
#115=CYLINDRICAL_SURFACE('',#153,69.9);
#116=ADVANCED_FACE('',(#23),#112,.F.);
#117=ADVANCED_FACE('',(#24,#18),#113,.F.);
#118=ADVANCED_FACE('',(#25),#114,.T.);
#119=ADVANCED_FACE('',(#26,#19),#15,.T.);
#120=ADVANCED_FACE('',(#27,#20),#16,.F.);
#121=ADVANCED_FACE('',(#28,#21),#115,.T.);
#122=ADVANCED_FACE('',(#29,#22),#17,.T.);
#123=CLOSED_SHELL('',(#116,#117,#118,#119,#120,#121,#122));
#124=DERIVED_UNIT_ELEMENT(#126,1.);
#125=DERIVED_UNIT_ELEMENT(#293,-3.);
#126=(
MASS_UNIT()
NAMED_UNIT(*)
SI_UNIT($,.GRAM.)
);
#127=DERIVED_UNIT((#124,#125));
#128=MEASURE_REPRESENTATION_ITEM('density measure',
POSITIVE_RATIO_MEASURE(1.),#127);
#129=PROPERTY_DEFINITION_REPRESENTATION(#134,#131);
#130=PROPERTY_DEFINITION_REPRESENTATION(#135,#132);
#131=REPRESENTATION('material name',(#133),#290);
#132=REPRESENTATION('density',(#128),#290);
#133=DESCRIPTIVE_REPRESENTATION_ITEM('\X2\4E00822C\X0\','\X2\4E00822C\X0\');
#134=PROPERTY_DEFINITION('material property','material name',#300);
#135=PROPERTY_DEFINITION('material property','density of part',#300);
#136=DATE_TIME_ROLE('creation_date');
#137=APPLIED_DATE_AND_TIME_ASSIGNMENT(#138,#136,(#300));
#138=DATE_AND_TIME(#139,#140);
#139=CALENDAR_DATE(2022,31,3);
#140=LOCAL_TIME(0,0,0.,#141);
#141=COORDINATED_UNIVERSAL_TIME_OFFSET(0,0,.BEHIND.);
#142=AXIS2_PLACEMENT_3D('placement',#188,#156,#157);
#143=AXIS2_PLACEMENT_3D('',#189,#158,#159);
#144=AXIS2_PLACEMENT_3D('',#230,#161,#162);
#145=AXIS2_PLACEMENT_3D('',#231,#163,#164);
#146=AXIS2_PLACEMENT_3D('',#233,#165,#166);
#147=AXIS2_PLACEMENT_3D('',#236,#168,#169);
#148=AXIS2_PLACEMENT_3D('',#237,#170,#171);
#149=AXIS2_PLACEMENT_3D('',#239,#172,#173);
#150=AXIS2_PLACEMENT_3D('',#279,#175,#176);
#151=AXIS2_PLACEMENT_3D('',#280,#177,#178);
#152=AXIS2_PLACEMENT_3D('',#282,#179,#180);
#153=AXIS2_PLACEMENT_3D('',#283,#181,#182);
#154=AXIS2_PLACEMENT_3D('',#285,#183,#184);
#155=AXIS2_PLACEMENT_3D('',#287,#186,#187);
#156=DIRECTION('axis',(0.,0.,1.));
#157=DIRECTION('refdir',(1.,0.,0.));
#158=DIRECTION('center_axis',(0.,0.,1.));
#159=DIRECTION('ref_axis',(1.,0.,0.));
#160=DIRECTION('',(0.,0.,1.));
#161=DIRECTION('center_axis',(0.,0.,-1.));
#162=DIRECTION('ref_axis',(1.,0.,0.));
#163=DIRECTION('center_axis',(1.,0.,0.));
#164=DIRECTION('ref_axis',(0.,1.,0.));
#165=DIRECTION('center_axis',(1.,0.,0.));
#166=DIRECTION('ref_axis',(0.,1.,0.));
#167=DIRECTION('',(1.,0.,0.));
#168=DIRECTION('center_axis',(-1.,0.,0.));
#169=DIRECTION('ref_axis',(0.,1.,0.));
#170=DIRECTION('center_axis',(0.,0.,1.));
#171=DIRECTION('ref_axis',(1.,0.,0.));
#172=DIRECTION('center_axis',(0.,0.,1.));
#173=DIRECTION('ref_axis',(1.,0.,0.));
#174=DIRECTION('',(0.,0.,-1.));
#175=DIRECTION('center_axis',(0.,0.,1.));
#176=DIRECTION('ref_axis',(1.,0.,0.));
#177=DIRECTION('center_axis',(1.,0.,0.));
#178=DIRECTION('ref_axis',(0.,0.,-1.));
#179=DIRECTION('center_axis',(-1.,0.,0.));
#180=DIRECTION('ref_axis',(0.,1.,0.));
#181=DIRECTION('center_axis',(1.,0.,0.));
#182=DIRECTION('ref_axis',(0.,1.,0.));
#183=DIRECTION('center_axis',(1.,0.,0.));
#184=DIRECTION('ref_axis',(0.,1.,0.));
#185=DIRECTION('',(-1.,0.,0.));
#186=DIRECTION('center_axis',(1.,0.,0.));
#187=DIRECTION('ref_axis',(0.,0.,-1.));
#188=CARTESIAN_POINT('',(0.,0.,0.));
#189=CARTESIAN_POINT('Origin',(0.,0.,0.));
#190=CARTESIAN_POINT('',(0.,-11.5,65.904172857263));
#191=CARTESIAN_POINT('',(-11.5,4.06051115115429E-16,66.9));
#192=CARTESIAN_POINT('Ctrl Pts',(0.,-11.5,65.904172857263));
#193=CARTESIAN_POINT('Ctrl Pts',(1.44708076482024,-11.5,65.904172857263));
#194=CARTESIAN_POINT('Ctrl Pts',(2.98860712792083,-11.2102109292876,65.9567658074746));
#195=CARTESIAN_POINT('Ctrl Pts',(5.8210915246253,-10.0357112594839,66.1456595690063));
#196=CARTESIAN_POINT('Ctrl Pts',(7.11230207326964,-9.15115389402095,66.2791158356923));
#197=CARTESIAN_POINT('Ctrl Pts',(9.15112303115865,-7.11233293613194,66.5287867760364));
#198=CARTESIAN_POINT('Ctrl Pts',(10.035704601613,-5.82110915900181,66.6613773340585));
#199=CARTESIAN_POINT('Ctrl Pts',(11.2102218396745,-2.98857923795075,66.8482829544338));
#200=CARTESIAN_POINT('Ctrl Pts',(11.5,-1.4470369548151,66.9));
#201=CARTESIAN_POINT('Ctrl Pts',(11.5,1.4470369548151,66.9));
#202=CARTESIAN_POINT('Ctrl Pts',(11.2102218396745,2.98857923795075,66.8482829544338));
#203=CARTESIAN_POINT('Ctrl Pts',(10.035704601613,5.82110915900181,66.6613773340585));
#204=CARTESIAN_POINT('Ctrl Pts',(9.15112303115865,7.11233293613194,66.5287867760364));
#205=CARTESIAN_POINT('Ctrl Pts',(7.11230207326964,9.15115389402095,66.2791158356923));
#206=CARTESIAN_POINT('Ctrl Pts',(5.8210915246253,10.0357112594839,66.1456595690063));
#207=CARTESIAN_POINT('Ctrl Pts',(2.98860712792083,11.2102109292876,65.9567658074746));
#208=CARTESIAN_POINT('Ctrl Pts',(1.44708076482024,11.5,65.904172857263));
#209=CARTESIAN_POINT('Ctrl Pts',(-1.44708076482024,11.5,65.904172857263));
#210=CARTESIAN_POINT('Ctrl Pts',(-2.98860712792083,11.2102109292876,65.9567658074746));
#211=CARTESIAN_POINT('Ctrl Pts',(-5.8210915246253,10.0357112594839,66.1456595690063));
#212=CARTESIAN_POINT('Ctrl Pts',(-7.11230207326964,9.15115389402095,66.2791158356923));
#213=CARTESIAN_POINT('Ctrl Pts',(-9.15112303115865,7.11233293613194,66.5287867760364));
#214=CARTESIAN_POINT('Ctrl Pts',(-10.035704601613,5.82110915900182,66.6613773340585));
#215=CARTESIAN_POINT('Ctrl Pts',(-11.2102218396745,2.98857923795076,66.8482829544338));
#216=CARTESIAN_POINT('Ctrl Pts',(-11.5,1.4470369548151,66.9));
#217=CARTESIAN_POINT('Ctrl Pts',(-11.5,2.22044604925031E-15,66.9));
#218=CARTESIAN_POINT('Ctrl Pts',(-11.5,2.22044604925031E-15,66.9));
#219=CARTESIAN_POINT('Ctrl Pts',(-11.5,-1.4470369548151,66.9));
#220=CARTESIAN_POINT('Ctrl Pts',(-11.2102218396745,-2.98857923795075,66.8482829544338));
#221=CARTESIAN_POINT('Ctrl Pts',(-10.035704601613,-5.82110915900181,66.6613773340585));
#222=CARTESIAN_POINT('Ctrl Pts',(-9.15112303115865,-7.11233293613193,66.5287867760364));
#223=CARTESIAN_POINT('Ctrl Pts',(-7.11230207326964,-9.15115389402094,66.2791158356923));
#224=CARTESIAN_POINT('Ctrl Pts',(-5.8210915246253,-10.0357112594839,66.1456595690063));
#225=CARTESIAN_POINT('Ctrl Pts',(-2.98860712792083,-11.2102109292876,65.9567658074746));
#226=CARTESIAN_POINT('Ctrl Pts',(-1.44708076482024,-11.5,65.904172857263));
#227=CARTESIAN_POINT('Ctrl Pts',(0.,-11.5,65.904172857263));
#228=CARTESIAN_POINT('',(-11.5,1.40834381901946E-15,75.6));
#229=CARTESIAN_POINT('',(-11.5,-1.40834381901946E-15,0.));
#230=CARTESIAN_POINT('Origin',(0.,0.,75.6));
#231=CARTESIAN_POINT('Origin',(0.,0.,0.));
#232=CARTESIAN_POINT('',(-145.,-66.9,-8.19288708629579E-15));
#233=CARTESIAN_POINT('Origin',(-145.,0.,0.));
#234=CARTESIAN_POINT('',(145.,-66.9,8.19288708629579E-15));
#235=CARTESIAN_POINT('',(0.,-66.9,-8.19288708629579E-15));
#236=CARTESIAN_POINT('Origin',(145.,0.,0.));
#237=CARTESIAN_POINT('Origin',(0.,0.,0.));
#238=CARTESIAN_POINT('',(-12.7,-1.55530143491714E-15,75.6));
#239=CARTESIAN_POINT('Origin',(0.,0.,75.6));
#240=CARTESIAN_POINT('',(-12.7,-1.47154010784929E-15,69.9));
#241=CARTESIAN_POINT('',(-12.7,-1.55530143491714E-15,0.));
#242=CARTESIAN_POINT('',(-2.77555756156289E-16,-12.7,68.7365986938545));
#243=CARTESIAN_POINT('Ctrl Pts',(-2.77555756156289E-16,-12.7,68.7365986938545));
#244=CARTESIAN_POINT('Ctrl Pts',(-1.59849328860773,-12.7,68.7365986938545));
#245=CARTESIAN_POINT('Ctrl Pts',(-3.30104404074752,-12.3798122288487,68.7981330169599));
#246=CARTESIAN_POINT('Ctrl Pts',(-6.42897237562319,-11.0826424708873,69.0189675891074));
#247=CARTESIAN_POINT('Ctrl Pts',(-7.85466331608135,-10.105848926057,69.1749234847051));
#248=CARTESIAN_POINT('Ctrl Pts',(-10.1058062567181,-7.85470598542025,69.4665510720583));
#249=CARTESIAN_POINT('Ctrl Pts',(-11.0826332547085,-6.42899681278313,69.6213759496611));
#250=CARTESIAN_POINT('Ctrl Pts',(-12.3798272842504,-3.30100552317734,69.839611622284));
#251=CARTESIAN_POINT('Ctrl Pts',(-12.7,-1.59843269240317,69.9));
#252=CARTESIAN_POINT('Ctrl Pts',(-12.7,-1.66533453693773E-15,69.9));
#253=CARTESIAN_POINT('Ctrl Pts',(-12.7,-1.38777878078145E-15,69.9));
#254=CARTESIAN_POINT('Ctrl Pts',(-12.7,1.59843269240317,69.9));
#255=CARTESIAN_POINT('Ctrl Pts',(-12.3798272842504,3.30100552317734,69.839611622284));
#256=CARTESIAN_POINT('Ctrl Pts',(-11.0826332547085,6.42899681278312,69.6213759496611));
#257=CARTESIAN_POINT('Ctrl Pts',(-10.1058062567181,7.85470598542025,69.4665510720583));
#258=CARTESIAN_POINT('Ctrl Pts',(-7.85466331608135,10.105848926057,69.1749234847051));
#259=CARTESIAN_POINT('Ctrl Pts',(-6.4289723756232,11.0826424708873,69.0189675891074));
#260=CARTESIAN_POINT('Ctrl Pts',(-3.30104404074752,12.3798122288487,68.7981330169599));
#261=CARTESIAN_POINT('Ctrl Pts',(-1.59849328860773,12.7,68.7365986938545));
#262=CARTESIAN_POINT('Ctrl Pts',(1.59849328860773,12.7,68.7365986938545));
#263=CARTESIAN_POINT('Ctrl Pts',(3.30104404074752,12.3798122288487,68.7981330169599));
#264=CARTESIAN_POINT('Ctrl Pts',(6.42897237562319,11.0826424708873,69.0189675891074));
#265=CARTESIAN_POINT('Ctrl Pts',(7.85466331608135,10.105848926057,69.1749234847051));
#266=CARTESIAN_POINT('Ctrl Pts',(10.1058062567181,7.85470598542025,69.4665510720583));
#267=CARTESIAN_POINT('Ctrl Pts',(11.0826332547085,6.42899681278313,69.6213759496611));
#268=CARTESIAN_POINT('Ctrl Pts',(12.3798272842504,3.30100552317734,69.839611622284));
#269=CARTESIAN_POINT('Ctrl Pts',(12.7,1.59843269240317,69.9));
#270=CARTESIAN_POINT('Ctrl Pts',(12.7,-1.59843269240317,69.9));
#271=CARTESIAN_POINT('Ctrl Pts',(12.3798272842504,-3.30100552317734,69.839611622284));
#272=CARTESIAN_POINT('Ctrl Pts',(11.0826332547085,-6.42899681278312,69.6213759496611));
#273=CARTESIAN_POINT('Ctrl Pts',(10.1058062567181,-7.85470598542025,69.4665510720583));
#274=CARTESIAN_POINT('Ctrl Pts',(7.85466331608135,-10.105848926057,69.1749234847051));
#275=CARTESIAN_POINT('Ctrl Pts',(6.4289723756232,-11.0826424708873,69.0189675891074));
#276=CARTESIAN_POINT('Ctrl Pts',(3.30104404074752,-12.3798122288487,68.7981330169599));
#277=CARTESIAN_POINT('Ctrl Pts',(1.59849328860773,-12.7,68.7365986938545));
#278=CARTESIAN_POINT('Ctrl Pts',(-3.88578058618805E-15,-12.7,68.7365986938545));
#279=CARTESIAN_POINT('Origin',(0.,0.,75.6));
#280=CARTESIAN_POINT('Origin',(-145.,0.,0.));
#281=CARTESIAN_POINT('',(-145.,-69.9,-8.56028112604E-15));
#282=CARTESIAN_POINT('Origin',(-145.,0.,0.));
#283=CARTESIAN_POINT('Origin',(0.,0.,0.));
#284=CARTESIAN_POINT('',(145.,-69.9,-8.56028112604E-15));
#285=CARTESIAN_POINT('Origin',(145.,0.,0.));
#286=CARTESIAN_POINT('',(0.,-69.9,-8.56028112604E-15));
#287=CARTESIAN_POINT('Origin',(145.,0.,0.));
#288=UNCERTAINTY_MEASURE_WITH_UNIT(LENGTH_MEASURE(0.01),#292,
'DISTANCE_ACCURACY_VALUE',
'Maximum model space distance between geometric entities at asserted c
onnectivities');
#289=UNCERTAINTY_MEASURE_WITH_UNIT(LENGTH_MEASURE(0.01),#292,
'DISTANCE_ACCURACY_VALUE',
'Maximum model space distance between geometric entities at asserted c
onnectivities');
#290=(
GEOMETRIC_REPRESENTATION_CONTEXT(3)
GLOBAL_UNCERTAINTY_ASSIGNED_CONTEXT((#288))
GLOBAL_UNIT_ASSIGNED_CONTEXT((#292,#294,#295))
REPRESENTATION_CONTEXT('','3D')
);
#291=(
GEOMETRIC_REPRESENTATION_CONTEXT(3)
GLOBAL_UNCERTAINTY_ASSIGNED_CONTEXT((#289))
GLOBAL_UNIT_ASSIGNED_CONTEXT((#292,#294,#295))
REPRESENTATION_CONTEXT('','3D')
);
#292=(
LENGTH_UNIT()
NAMED_UNIT(*)
SI_UNIT(.MILLI.,.METRE.)
);
#293=(
LENGTH_UNIT()
NAMED_UNIT(*)
SI_UNIT(.CENTI.,.METRE.)
);
#294=(
NAMED_UNIT(*)
PLANE_ANGLE_UNIT()
SI_UNIT($,.RADIAN.)
);
#295=(
NAMED_UNIT(*)
SI_UNIT($,.STERADIAN.)
SOLID_ANGLE_UNIT()
);
#296=SHAPE_DEFINITION_REPRESENTATION(#297,#298);
#297=PRODUCT_DEFINITION_SHAPE('',$,#300);
#298=SHAPE_REPRESENTATION('',(#142),#290);
#299=PRODUCT_DEFINITION_CONTEXT('part definition',#304,'design');
#300=PRODUCT_DEFINITION('T-8 50\X\D710','T-8 50\X\D710',#301,#299);
#301=PRODUCT_DEFINITION_FORMATION('',$,#306);
#302=PRODUCT_RELATED_PRODUCT_CATEGORY('T-8 50\X\D710','T-8 50\X\D710',(#306));
#303=APPLICATION_PROTOCOL_DEFINITION('international standard',
'automotive_design',2009,#304);
#304=APPLICATION_CONTEXT(
'Core Data for Automotive Mechanical Design Process');
#305=PRODUCT_CONTEXT('part definition',#304,'mechanical');
#306=PRODUCT('T-8 50\X\D710','T-8 50\X\D710',$,(#305));
#307=PRESENTATION_STYLE_ASSIGNMENT((#308));
#308=SURFACE_STYLE_USAGE(.BOTH.,#311);
#309=SURFACE_STYLE_RENDERING_WITH_PROPERTIES($,#315,(#310));
#310=SURFACE_STYLE_TRANSPARENT(0.);
#311=SURFACE_SIDE_STYLE('',(#312,#309));
#312=SURFACE_STYLE_FILL_AREA(#313);
#313=FILL_AREA_STYLE('',(#314));
#314=FILL_AREA_STYLE_COLOUR('',#315);
#315=COLOUR_RGB('',0.749019607843137,0.749019607843137,0.749019607843137);
ENDSEC;
END-ISO-10303-21;
