ISO-10303-21;
HEADER;
/* Generated by software containing ST-Developer
 * from STEP Tools, Inc. (www.steptools.com) 
 */

FILE_DESCRIPTION(
/* description */ (''),
/* implementation_level */ '2;1');

FILE_NAME(
/* name */ 
'\\\\Tske00\\w\\Work\\TOSTE\\\X2\7D99624B\X0\\\02_\X2\6EB663A5\X0\\\\X2\6EB663A5752830C130FC30BA\X0\\\
T-8\\T-8 45\X\D740.stp',
/* time_stamp */ '2022-04-12T16:10:45+09:00',
/* author */ ('3dcad-eng'),
/* organization */ (''),
/* preprocessor_version */ 'ST-DEVELOPER v18.1',
/* originating_system */ 'Autodesk Inventor 2022',
/* authorisation */ '');

FILE_SCHEMA (('AUTOMOTIVE_DESIGN { 1 0 10303 214 3 1 1 }'));
ENDSEC;

DATA;
#10=MECHANICAL_DESIGN_GEOMETRIC_PRESENTATION_REPRESENTATION('',(#13),#355);
#11=SHAPE_REPRESENTATION_RELATIONSHIP('SRR','None',#362,#12);
#12=ADVANCED_BREP_SHAPE_REPRESENTATION('',(#14),#354);
#13=STYLED_ITEM('',(#371),#14);
#14=MANIFOLD_SOLID_BREP('\X2\30BD30EA30C330C9\X0\1',#123);
#15=PLANE('',#150);
#16=PLANE('',#151);
#17=PLANE('',#155);
#18=FACE_BOUND('',#32,.T.);
#19=FACE_BOUND('',#35,.T.);
#20=FACE_BOUND('',#37,.T.);
#21=FACE_BOUND('',#39,.T.);
#22=FACE_BOUND('',#41,.T.);
#23=FACE_OUTER_BOUND('',#30,.T.);
#24=FACE_OUTER_BOUND('',#31,.T.);
#25=FACE_OUTER_BOUND('',#33,.T.);
#26=FACE_OUTER_BOUND('',#34,.T.);
#27=FACE_OUTER_BOUND('',#36,.T.);
#28=FACE_OUTER_BOUND('',#38,.T.);
#29=FACE_OUTER_BOUND('',#40,.T.);
#30=EDGE_LOOP('',(#84,#85,#86,#87,#88));
#31=EDGE_LOOP('',(#89,#90,#91,#92));
#32=EDGE_LOOP('',(#93,#94));
#33=EDGE_LOOP('',(#95,#96,#97,#98,#99));
#34=EDGE_LOOP('',(#100));
#35=EDGE_LOOP('',(#101));
#36=EDGE_LOOP('',(#102));
#37=EDGE_LOOP('',(#103));
#38=EDGE_LOOP('',(#104,#105,#106,#107));
#39=EDGE_LOOP('',(#108,#109));
#40=EDGE_LOOP('',(#110));
#41=EDGE_LOOP('',(#111));
#42=CIRCLE('',#144,48.8);
#43=CIRCLE('',#146,54.15);
#44=CIRCLE('',#147,54.15);
#45=CIRCLE('',#149,50.8);
#46=CIRCLE('',#152,57.15);
#47=CIRCLE('',#154,57.15);
#48=LINE('',#261,#52);
#49=LINE('',#267,#53);
#50=LINE('',#273,#54);
#51=LINE('',#350,#55);
#52=VECTOR('',#160,48.8);
#53=VECTOR('',#167,54.15);
#54=VECTOR('',#174,50.8);
#55=VECTOR('',#185,57.15);
#56=B_SPLINE_CURVE_WITH_KNOTS('',3,(#192,#193,#194,#195,#196,#197,#198,
#199,#200,#201,#202,#203,#204,#205,#206,#207,#208,#209,#210,#211,#212,#213,
#214,#215,#216,#217,#218,#219,#220,#221,#222,#223,#224,#225,#226,#227,#228,
#229,#230,#231,#232,#233,#234,#235,#236,#237,#238,#239,#240,#241),
 .UNSPECIFIED.,.F.,.F.,(4,2,2,2,2,2,2,2,2,2,2,2,2,2,2,2,2,2,2,2,2,2,2,2,
4),(0.,1.06487999347601,2.12975998695202,3.19463998042803,4.25951997390404,
5.2468532472777,6.23418652065137,7.22151979402503,8.20885306739869,9.19618634077235,
10.183519614146,11.1708528875197,12.1581861608933,13.2230661543693,14.2879461478454,
15.3528261413214,16.4177061347974,17.4825861282734,18.5474661217494,19.6123461152254,
20.6772261087014,21.6645593820751,22.6518926554487,23.6392259288224,24.6265592021961),
 .UNSPECIFIED.);
#57=B_SPLINE_CURVE_WITH_KNOTS('',3,(#242,#243,#244,#245,#246,#247,#248,
#249,#250,#251,#252,#253,#254,#255,#256,#257,#258,#259),.UNSPECIFIED.,.F.,
 .F.,(4,2,2,2,2,2,2,2,4),(24.6265592021961,25.6138924755697,26.6012257489434,
27.5885590223171,28.5758922956907,29.6407722891667,30.7056522826427,31.7705322761187,
32.8354122695948),.UNSPECIFIED.);
#58=B_SPLINE_CURVE_WITH_KNOTS('',3,(#275,#276,#277,#278,#279,#280,#281,
#282,#283,#284,#285,#286,#287,#288,#289,#290,#291,#292),.UNSPECIFIED.,.F.,
 .F.,(4,2,2,2,2,2,2,2,4),(0.,1.09671774395382,2.19343548790763,3.29015323186145,
4.38687097581527,5.41216631306475,6.43746165031423,7.46275698756371,8.48805232481319),
 .UNSPECIFIED.);
#59=B_SPLINE_CURVE_WITH_KNOTS('',3,(#293,#294,#295,#296,#297,#298,#299,
#300,#301,#302,#303,#304,#305,#306,#307,#308,#309,#310,#311,#312,#313,#314,
#315,#316,#317,#318,#319,#320,#321,#322,#323,#324,#325,#326,#327,#328,#329,
#330,#331,#332,#333,#334,#335,#336,#337,#338,#339,#340,#341,#342),
 .UNSPECIFIED.,.F.,.F.,(4,2,2,2,2,2,2,2,2,2,2,2,2,2,2,2,2,2,2,2,2,2,2,2,
4),(8.48805232481319,9.51334766206268,10.5386429993122,11.5639383365616,
12.5892336738111,13.6859514177649,14.7826691617188,15.8793869056726,16.9761046496264,
18.0728223935802,19.169540137534,20.2662578814878,21.3629756254417,22.3882709626911,
23.4135662999406,24.4388616371901,25.4641569744396,26.4894523116891,27.5147476489385,
28.540042986188,29.5653383234375,30.6620560673913,31.7587738113451,32.855491555299,
33.9522092992528),.UNSPECIFIED.);
#60=VERTEX_POINT('',#190);
#61=VERTEX_POINT('',#191);
#62=VERTEX_POINT('',#260);
#63=VERTEX_POINT('',#264);
#64=VERTEX_POINT('',#266);
#65=VERTEX_POINT('',#270);
#66=VERTEX_POINT('',#272);
#67=VERTEX_POINT('',#274);
#68=VERTEX_POINT('',#345);
#69=VERTEX_POINT('',#348);
#70=EDGE_CURVE('',#60,#61,#56,.T.);
#71=EDGE_CURVE('',#61,#60,#57,.T.);
#72=EDGE_CURVE('',#61,#62,#48,.T.);
#73=EDGE_CURVE('',#62,#62,#42,.T.);
#74=EDGE_CURVE('',#63,#63,#43,.T.);
#75=EDGE_CURVE('',#63,#64,#49,.T.);
#76=EDGE_CURVE('',#64,#64,#44,.T.);
#77=EDGE_CURVE('',#65,#65,#45,.T.);
#78=EDGE_CURVE('',#65,#66,#50,.T.);
#79=EDGE_CURVE('',#67,#66,#58,.T.);
#80=EDGE_CURVE('',#66,#67,#59,.T.);
#81=EDGE_CURVE('',#68,#68,#46,.T.);
#82=EDGE_CURVE('',#69,#69,#47,.T.);
#83=EDGE_CURVE('',#69,#68,#51,.T.);
#84=ORIENTED_EDGE('',*,*,#70,.F.);
#85=ORIENTED_EDGE('',*,*,#71,.F.);
#86=ORIENTED_EDGE('',*,*,#72,.T.);
#87=ORIENTED_EDGE('',*,*,#73,.F.);
#88=ORIENTED_EDGE('',*,*,#72,.F.);
#89=ORIENTED_EDGE('',*,*,#74,.F.);
#90=ORIENTED_EDGE('',*,*,#75,.T.);
#91=ORIENTED_EDGE('',*,*,#76,.F.);
#92=ORIENTED_EDGE('',*,*,#75,.F.);
#93=ORIENTED_EDGE('',*,*,#70,.T.);
#94=ORIENTED_EDGE('',*,*,#71,.T.);
#95=ORIENTED_EDGE('',*,*,#77,.F.);
#96=ORIENTED_EDGE('',*,*,#78,.T.);
#97=ORIENTED_EDGE('',*,*,#79,.F.);
#98=ORIENTED_EDGE('',*,*,#80,.F.);
#99=ORIENTED_EDGE('',*,*,#78,.F.);
#100=ORIENTED_EDGE('',*,*,#77,.T.);
#101=ORIENTED_EDGE('',*,*,#73,.T.);
#102=ORIENTED_EDGE('',*,*,#81,.T.);
#103=ORIENTED_EDGE('',*,*,#74,.T.);
#104=ORIENTED_EDGE('',*,*,#82,.F.);
#105=ORIENTED_EDGE('',*,*,#83,.T.);
#106=ORIENTED_EDGE('',*,*,#81,.F.);
#107=ORIENTED_EDGE('',*,*,#83,.F.);
#108=ORIENTED_EDGE('',*,*,#79,.T.);
#109=ORIENTED_EDGE('',*,*,#80,.T.);
#110=ORIENTED_EDGE('',*,*,#82,.T.);
#111=ORIENTED_EDGE('',*,*,#76,.T.);
#112=CYLINDRICAL_SURFACE('',#143,48.8);
#113=CYLINDRICAL_SURFACE('',#145,54.15);
#114=CYLINDRICAL_SURFACE('',#148,50.8);
#115=CYLINDRICAL_SURFACE('',#153,57.15);
#116=ADVANCED_FACE('',(#23),#112,.F.);
#117=ADVANCED_FACE('',(#24,#18),#113,.F.);
#118=ADVANCED_FACE('',(#25),#114,.T.);
#119=ADVANCED_FACE('',(#26,#19),#15,.T.);
#120=ADVANCED_FACE('',(#27,#20),#16,.F.);
#121=ADVANCED_FACE('',(#28,#21),#115,.T.);
#122=ADVANCED_FACE('',(#29,#22),#17,.T.);
#123=CLOSED_SHELL('',(#116,#117,#118,#119,#120,#121,#122));
#124=DERIVED_UNIT_ELEMENT(#126,1.);
#125=DERIVED_UNIT_ELEMENT(#357,-3.);
#126=(
MASS_UNIT()
NAMED_UNIT(*)
SI_UNIT($,.GRAM.)
);
#127=DERIVED_UNIT((#124,#125));
#128=MEASURE_REPRESENTATION_ITEM('density measure',
POSITIVE_RATIO_MEASURE(1.),#127);
#129=PROPERTY_DEFINITION_REPRESENTATION(#134,#131);
#130=PROPERTY_DEFINITION_REPRESENTATION(#135,#132);
#131=REPRESENTATION('material name',(#133),#354);
#132=REPRESENTATION('density',(#128),#354);
#133=DESCRIPTIVE_REPRESENTATION_ITEM('\X2\4E00822C\X0\','\X2\4E00822C\X0\');
#134=PROPERTY_DEFINITION('material property','material name',#364);
#135=PROPERTY_DEFINITION('material property','density of part',#364);
#136=DATE_TIME_ROLE('creation_date');
#137=APPLIED_DATE_AND_TIME_ASSIGNMENT(#138,#136,(#364));
#138=DATE_AND_TIME(#139,#140);
#139=CALENDAR_DATE(2022,31,3);
#140=LOCAL_TIME(0,0,0.,#141);
#141=COORDINATED_UNIVERSAL_TIME_OFFSET(0,0,.BEHIND.);
#142=AXIS2_PLACEMENT_3D('placement',#188,#156,#157);
#143=AXIS2_PLACEMENT_3D('',#189,#158,#159);
#144=AXIS2_PLACEMENT_3D('',#262,#161,#162);
#145=AXIS2_PLACEMENT_3D('',#263,#163,#164);
#146=AXIS2_PLACEMENT_3D('',#265,#165,#166);
#147=AXIS2_PLACEMENT_3D('',#268,#168,#169);
#148=AXIS2_PLACEMENT_3D('',#269,#170,#171);
#149=AXIS2_PLACEMENT_3D('',#271,#172,#173);
#150=AXIS2_PLACEMENT_3D('',#343,#175,#176);
#151=AXIS2_PLACEMENT_3D('',#344,#177,#178);
#152=AXIS2_PLACEMENT_3D('',#346,#179,#180);
#153=AXIS2_PLACEMENT_3D('',#347,#181,#182);
#154=AXIS2_PLACEMENT_3D('',#349,#183,#184);
#155=AXIS2_PLACEMENT_3D('',#351,#186,#187);
#156=DIRECTION('axis',(0.,0.,1.));
#157=DIRECTION('refdir',(1.,0.,0.));
#158=DIRECTION('center_axis',(0.,0.,1.));
#159=DIRECTION('ref_axis',(1.,0.,0.));
#160=DIRECTION('',(0.,0.,1.));
#161=DIRECTION('center_axis',(0.,0.,-1.));
#162=DIRECTION('ref_axis',(1.,0.,0.));
#163=DIRECTION('center_axis',(1.,0.,0.));
#164=DIRECTION('ref_axis',(0.,1.,0.));
#165=DIRECTION('center_axis',(1.,0.,0.));
#166=DIRECTION('ref_axis',(0.,1.,0.));
#167=DIRECTION('',(1.,0.,0.));
#168=DIRECTION('center_axis',(-1.,0.,0.));
#169=DIRECTION('ref_axis',(0.,1.,0.));
#170=DIRECTION('center_axis',(0.,0.,1.));
#171=DIRECTION('ref_axis',(1.,0.,0.));
#172=DIRECTION('center_axis',(0.,0.,1.));
#173=DIRECTION('ref_axis',(1.,0.,0.));
#174=DIRECTION('',(0.,0.,-1.));
#175=DIRECTION('center_axis',(0.,0.,1.));
#176=DIRECTION('ref_axis',(1.,0.,0.));
#177=DIRECTION('center_axis',(1.,0.,0.));
#178=DIRECTION('ref_axis',(0.,0.,-1.));
#179=DIRECTION('center_axis',(-1.,0.,0.));
#180=DIRECTION('ref_axis',(0.,1.,0.));
#181=DIRECTION('center_axis',(1.,0.,0.));
#182=DIRECTION('ref_axis',(0.,1.,0.));
#183=DIRECTION('center_axis',(1.,0.,0.));
#184=DIRECTION('ref_axis',(0.,1.,0.));
#185=DIRECTION('',(-1.,0.,0.));
#186=DIRECTION('center_axis',(1.,0.,0.));
#187=DIRECTION('ref_axis',(0.,0.,-1.));
#188=CARTESIAN_POINT('',(0.,0.,0.));
#189=CARTESIAN_POINT('Origin',(0.,0.,0.));
#190=CARTESIAN_POINT('',(0.,-48.8,23.4687558255652));
#191=CARTESIAN_POINT('',(-48.8,3.42530883955928E-16,54.15));
#192=CARTESIAN_POINT('Ctrl Pts',(0.,-48.8,23.4687558255652));
#193=CARTESIAN_POINT('Ctrl Pts',(3.54959997825337,-48.8,23.4687558255652));
#194=CARTESIAN_POINT('Ctrl Pts',(6.86411377607113,-48.4229026852199,24.2782275898808));
#195=CARTESIAN_POINT('Ctrl Pts',(13.192510934499,-47.0940686089931,26.7648737537992));
#196=CARTESIAN_POINT('Ctrl Pts',(16.2086109603021,-46.1369175214817,28.4335027108408));
#197=CARTESIAN_POINT('Ctrl Pts',(21.9982073226888,-43.6739895953603,32.0883194939229));
#198=CARTESIAN_POINT('Ctrl Pts',(24.7612287483954,-42.1671743255619,34.0743992347236));
#199=CARTESIAN_POINT('Ctrl Pts',(29.93324353837,-38.6676863551633,37.9992804183075));
#200=CARTESIAN_POINT('Ctrl Pts',(32.3400555267507,-36.6735663170564,39.9396653047025));
#201=CARTESIAN_POINT('Ctrl Pts',(36.5157787962206,-32.4978430475864,43.3924896308626));
#202=CARTESIAN_POINT('Ctrl Pts',(38.4582161011519,-30.1992714557856,45.044808763468));
#203=CARTESIAN_POINT('Ctrl Pts',(41.967206549043,-25.0954967554793,48.0754286098467));
#204=CARTESIAN_POINT('Ctrl Pts',(43.5336453161474,-22.2898152642695,49.4530560661133));
#205=CARTESIAN_POINT('Ctrl Pts',(46.1061975554611,-16.3166423555865,51.732078366009));
#206=CARTESIAN_POINT('Ctrl Pts',(47.1146626149435,-13.1417638828373,52.6354041099528));
#207=CARTESIAN_POINT('Ctrl Pts',(48.4618638203508,-6.62911355250867,53.8446522641707));
#208=CARTESIAN_POINT('Ctrl Pts',(48.8,-3.29111091124554,54.15));
#209=CARTESIAN_POINT('Ctrl Pts',(48.8,3.29111091124554,54.15));
#210=CARTESIAN_POINT('Ctrl Pts',(48.4618638203508,6.62911355250867,53.8446522641707));
#211=CARTESIAN_POINT('Ctrl Pts',(47.1146626149435,13.1417638828373,52.6354041099528));
#212=CARTESIAN_POINT('Ctrl Pts',(46.1061975554611,16.3166423555865,51.732078366009));
#213=CARTESIAN_POINT('Ctrl Pts',(43.5336453161474,22.2898152642695,49.4530560661133));
#214=CARTESIAN_POINT('Ctrl Pts',(41.967206549043,25.0954967554793,48.0754286098467));
#215=CARTESIAN_POINT('Ctrl Pts',(38.458216101152,30.1992714557856,45.044808763468));
#216=CARTESIAN_POINT('Ctrl Pts',(36.5157787962206,32.4978430475864,43.3924896308626));
#217=CARTESIAN_POINT('Ctrl Pts',(32.3400555267507,36.6735663170564,39.9396653047025));
#218=CARTESIAN_POINT('Ctrl Pts',(29.93324353837,38.6676863551633,37.9992804183075));
#219=CARTESIAN_POINT('Ctrl Pts',(24.7612287483954,42.1671743255619,34.0743992347236));
#220=CARTESIAN_POINT('Ctrl Pts',(21.9982073226888,43.6739895953603,32.0883194939229));
#221=CARTESIAN_POINT('Ctrl Pts',(16.2086109603021,46.1369175214817,28.4335027108408));
#222=CARTESIAN_POINT('Ctrl Pts',(13.192510934499,47.0940686089931,26.7648737537992));
#223=CARTESIAN_POINT('Ctrl Pts',(6.86411377607113,48.4229026852199,24.2782275898808));
#224=CARTESIAN_POINT('Ctrl Pts',(3.54959997825337,48.8,23.4687558255652));
#225=CARTESIAN_POINT('Ctrl Pts',(-3.54959997825336,48.8,23.4687558255652));
#226=CARTESIAN_POINT('Ctrl Pts',(-6.86411377607111,48.4229026852199,24.2782275898808));
#227=CARTESIAN_POINT('Ctrl Pts',(-13.1925109344989,47.0940686089931,26.7648737537992));
#228=CARTESIAN_POINT('Ctrl Pts',(-16.2086109603021,46.1369175214817,28.4335027108408));
#229=CARTESIAN_POINT('Ctrl Pts',(-21.9982073226887,43.6739895953603,32.0883194939229));
#230=CARTESIAN_POINT('Ctrl Pts',(-24.7612287483954,42.1671743255619,34.0743992347236));
#231=CARTESIAN_POINT('Ctrl Pts',(-29.93324353837,38.6676863551633,37.9992804183075));
#232=CARTESIAN_POINT('Ctrl Pts',(-32.3400555267506,36.6735663170564,39.9396653047025));
#233=CARTESIAN_POINT('Ctrl Pts',(-36.5157787962206,32.4978430475864,43.3924896308626));
#234=CARTESIAN_POINT('Ctrl Pts',(-38.4582161011519,30.1992714557856,45.044808763468));
#235=CARTESIAN_POINT('Ctrl Pts',(-41.967206549043,25.0954967554793,48.0754286098467));
#236=CARTESIAN_POINT('Ctrl Pts',(-43.5336453161474,22.2898152642695,49.4530560661133));
#237=CARTESIAN_POINT('Ctrl Pts',(-46.1061975554611,16.3166423555865,51.732078366009));
#238=CARTESIAN_POINT('Ctrl Pts',(-47.1146626149435,13.1417638828373,52.6354041099528));
#239=CARTESIAN_POINT('Ctrl Pts',(-48.4618638203508,6.62911355250867,53.8446522641707));
#240=CARTESIAN_POINT('Ctrl Pts',(-48.8,3.29111091124554,54.15));
#241=CARTESIAN_POINT('Ctrl Pts',(-48.8,5.55111512312578E-15,54.15));
#242=CARTESIAN_POINT('Ctrl Pts',(-48.8,6.66133814775094E-15,54.15));
#243=CARTESIAN_POINT('Ctrl Pts',(-48.8,-3.29111091124553,54.15));
#244=CARTESIAN_POINT('Ctrl Pts',(-48.4618638203508,-6.62911355250866,53.8446522641707));
#245=CARTESIAN_POINT('Ctrl Pts',(-47.1146626149435,-13.1417638828373,52.6354041099528));
#246=CARTESIAN_POINT('Ctrl Pts',(-46.1061975554611,-16.3166423555865,51.732078366009));
#247=CARTESIAN_POINT('Ctrl Pts',(-43.5336453161474,-22.2898152642695,49.4530560661133));
#248=CARTESIAN_POINT('Ctrl Pts',(-41.967206549043,-25.0954967554793,48.0754286098467));
#249=CARTESIAN_POINT('Ctrl Pts',(-38.458216101152,-30.1992714557856,45.044808763468));
#250=CARTESIAN_POINT('Ctrl Pts',(-36.5157787962206,-32.4978430475864,43.3924896308626));
#251=CARTESIAN_POINT('Ctrl Pts',(-32.3400555267507,-36.6735663170564,39.9396653047025));
#252=CARTESIAN_POINT('Ctrl Pts',(-29.93324353837,-38.6676863551633,37.9992804183075));
#253=CARTESIAN_POINT('Ctrl Pts',(-24.7612287483954,-42.1671743255619,34.0743992347236));
#254=CARTESIAN_POINT('Ctrl Pts',(-21.9982073226887,-43.6739895953603,32.0883194939229));
#255=CARTESIAN_POINT('Ctrl Pts',(-16.2086109603021,-46.1369175214817,28.4335027108408));
#256=CARTESIAN_POINT('Ctrl Pts',(-13.192510934499,-47.0940686089931,26.7648737537992));
#257=CARTESIAN_POINT('Ctrl Pts',(-6.86411377607113,-48.4229026852199,24.2782275898808));
#258=CARTESIAN_POINT('Ctrl Pts',(-3.54959997825338,-48.8,23.4687558255652));
#259=CARTESIAN_POINT('Ctrl Pts',(-3.33066907387547E-15,-48.8,23.4687558255652));
#260=CARTESIAN_POINT('',(-48.8,5.97627637983908E-15,63.9));
#261=CARTESIAN_POINT('',(-48.8,-5.97627637983908E-15,0.));
#262=CARTESIAN_POINT('Origin',(0.,0.,63.9));
#263=CARTESIAN_POINT('Origin',(0.,0.,0.));
#264=CARTESIAN_POINT('',(-120.,-54.15,-6.63146241738292E-15));
#265=CARTESIAN_POINT('Origin',(-120.,0.,0.));
#266=CARTESIAN_POINT('',(120.,-54.15,6.63146241738292E-15));
#267=CARTESIAN_POINT('',(0.,-54.15,-6.63146241738292E-15));
#268=CARTESIAN_POINT('Origin',(120.,0.,0.));
#269=CARTESIAN_POINT('Origin',(0.,0.,0.));
#270=CARTESIAN_POINT('',(-50.8,-6.22120573966855E-15,63.9));
#271=CARTESIAN_POINT('Origin',(0.,0.,63.9));
#272=CARTESIAN_POINT('',(-50.8,-6.44127194370975E-15,57.15));
#273=CARTESIAN_POINT('',(-50.8,-6.22120573966855E-15,0.));
#274=CARTESIAN_POINT('',(-5.55111512312578E-16,-50.8,26.1817207226721));
#275=CARTESIAN_POINT('Ctrl Pts',(-5.55111512312578E-16,-50.8,26.1817207226721));
#276=CARTESIAN_POINT('Ctrl Pts',(-3.65572581317939,-50.8,26.1817207226721));
#277=CARTESIAN_POINT('Ctrl Pts',(-7.11292038329151,-50.4128222856609,26.9563218767554));
#278=CARTESIAN_POINT('Ctrl Pts',(-13.7239844679537,-49.0275286601205,29.4006351363758));
#279=CARTESIAN_POINT('Ctrl Pts',(-16.8811599819484,-48.0255029851221,31.0591743255786));
#280=CARTESIAN_POINT('Ctrl Pts',(-22.9238776123602,-45.4524034007042,34.7159806933831));
#281=CARTESIAN_POINT('Ctrl Pts',(-25.8022123125292,-43.8797479513035,36.7141239748115));
#282=CARTESIAN_POINT('Ctrl Pts',(-31.179606096476,-40.2370302252479,40.6735858323462));
#283=CARTESIAN_POINT('Ctrl Pts',(-33.6766259356909,-38.1654230328623,42.6362520761255));
#284=CARTESIAN_POINT('Ctrl Pts',(-38.0192593122264,-33.8227896563268,46.1456298004172));
#285=CARTESIAN_POINT('Ctrl Pts',(-40.0448391679982,-31.4240455169865,47.834430250373));
#286=CARTESIAN_POINT('Ctrl Pts',(-43.7002405697977,-26.1026580189384,50.9338256838582));
#287=CARTESIAN_POINT('Ctrl Pts',(-45.3299691069917,-23.1795175552069,52.3436768106712));
#288=CARTESIAN_POINT('Ctrl Pts',(-48.0044409430287,-16.9608349671003,54.6761442477913));
#289=CARTESIAN_POINT('Ctrl Pts',(-49.0516094273615,-13.6576531320264,55.6006915801933));
#290=CARTESIAN_POINT('Ctrl Pts',(-50.449701660412,-6.8861802934594,56.837917928222));
#291=CARTESIAN_POINT('Ctrl Pts',(-50.8,-3.41765112416495,57.15));
#292=CARTESIAN_POINT('Ctrl Pts',(-50.8,-6.66133814775094E-15,57.15));
#293=CARTESIAN_POINT('Ctrl Pts',(-50.8,-6.66133814775094E-15,57.15));
#294=CARTESIAN_POINT('Ctrl Pts',(-50.8,3.41765112416494,57.15));
#295=CARTESIAN_POINT('Ctrl Pts',(-50.4497016604121,6.8861802934594,56.837917928222));
#296=CARTESIAN_POINT('Ctrl Pts',(-49.0516094273615,13.6576531320264,55.6006915801932));
#297=CARTESIAN_POINT('Ctrl Pts',(-48.0044409430287,16.9608349671003,54.6761442477913));
#298=CARTESIAN_POINT('Ctrl Pts',(-45.3299691069917,23.1795175552068,52.3436768106712));
#299=CARTESIAN_POINT('Ctrl Pts',(-43.7002405697977,26.1026580189384,50.9338256838582));
#300=CARTESIAN_POINT('Ctrl Pts',(-40.0448391679983,31.4240455169865,47.834430250373));
#301=CARTESIAN_POINT('Ctrl Pts',(-38.0192593122264,33.8227896563268,46.1456298004172));
#302=CARTESIAN_POINT('Ctrl Pts',(-33.6766259356909,38.1654230328623,42.6362520761255));
#303=CARTESIAN_POINT('Ctrl Pts',(-31.179606096476,40.2370302252479,40.6735858323462));
#304=CARTESIAN_POINT('Ctrl Pts',(-25.8022123125292,43.8797479513035,36.7141239748115));
#305=CARTESIAN_POINT('Ctrl Pts',(-22.9238776123603,45.4524034007042,34.7159806933831));
#306=CARTESIAN_POINT('Ctrl Pts',(-16.8811599819484,48.0255029851221,31.0591743255786));
#307=CARTESIAN_POINT('Ctrl Pts',(-13.7239844679537,49.0275286601205,29.4006351363758));
#308=CARTESIAN_POINT('Ctrl Pts',(-7.11292038329151,50.4128222856609,26.9563218767554));
#309=CARTESIAN_POINT('Ctrl Pts',(-3.65572581317939,50.8,26.1817207226721));
#310=CARTESIAN_POINT('Ctrl Pts',(3.65572581317939,50.8,26.1817207226721));
#311=CARTESIAN_POINT('Ctrl Pts',(7.11292038329151,50.4128222856609,26.9563218767554));
#312=CARTESIAN_POINT('Ctrl Pts',(13.7239844679537,49.0275286601205,29.4006351363758));
#313=CARTESIAN_POINT('Ctrl Pts',(16.8811599819484,48.0255029851221,31.0591743255786));
#314=CARTESIAN_POINT('Ctrl Pts',(22.9238776123603,45.4524034007042,34.7159806933832));
#315=CARTESIAN_POINT('Ctrl Pts',(25.8022123125292,43.8797479513035,36.7141239748115));
#316=CARTESIAN_POINT('Ctrl Pts',(31.179606096476,40.2370302252479,40.6735858323462));
#317=CARTESIAN_POINT('Ctrl Pts',(33.6766259356909,38.1654230328623,42.6362520761255));
#318=CARTESIAN_POINT('Ctrl Pts',(38.0192593122264,33.8227896563268,46.1456298004172));
#319=CARTESIAN_POINT('Ctrl Pts',(40.0448391679983,31.4240455169865,47.834430250373));
#320=CARTESIAN_POINT('Ctrl Pts',(43.7002405697977,26.1026580189384,50.9338256838582));
#321=CARTESIAN_POINT('Ctrl Pts',(45.3299691069917,23.1795175552069,52.3436768106712));
#322=CARTESIAN_POINT('Ctrl Pts',(48.0044409430287,16.9608349671003,54.6761442477913));
#323=CARTESIAN_POINT('Ctrl Pts',(49.0516094273615,13.6576531320264,55.6006915801932));
#324=CARTESIAN_POINT('Ctrl Pts',(50.4497016604121,6.88618029345941,56.837917928222));
#325=CARTESIAN_POINT('Ctrl Pts',(50.8,3.41765112416495,57.15));
#326=CARTESIAN_POINT('Ctrl Pts',(50.8,-3.41765112416493,57.15));
#327=CARTESIAN_POINT('Ctrl Pts',(50.4497016604121,-6.88618029345938,56.837917928222));
#328=CARTESIAN_POINT('Ctrl Pts',(49.0516094273615,-13.6576531320264,55.6006915801933));
#329=CARTESIAN_POINT('Ctrl Pts',(48.0044409430287,-16.9608349671002,54.6761442477913));
#330=CARTESIAN_POINT('Ctrl Pts',(45.3299691069917,-23.1795175552068,52.3436768106712));
#331=CARTESIAN_POINT('Ctrl Pts',(43.7002405697977,-26.1026580189384,50.9338256838582));
#332=CARTESIAN_POINT('Ctrl Pts',(40.0448391679983,-31.4240455169865,47.834430250373));
#333=CARTESIAN_POINT('Ctrl Pts',(38.0192593122264,-33.8227896563268,46.1456298004172));
#334=CARTESIAN_POINT('Ctrl Pts',(33.6766259356909,-38.1654230328623,42.6362520761255));
#335=CARTESIAN_POINT('Ctrl Pts',(31.1796060964761,-40.2370302252479,40.6735858323462));
#336=CARTESIAN_POINT('Ctrl Pts',(25.8022123125292,-43.8797479513035,36.7141239748115));
#337=CARTESIAN_POINT('Ctrl Pts',(22.9238776123603,-45.4524034007042,34.7159806933832));
#338=CARTESIAN_POINT('Ctrl Pts',(16.8811599819485,-48.0255029851221,31.0591743255787));
#339=CARTESIAN_POINT('Ctrl Pts',(13.7239844679537,-49.0275286601205,29.4006351363758));
#340=CARTESIAN_POINT('Ctrl Pts',(7.11292038329152,-50.4128222856609,26.9563218767554));
#341=CARTESIAN_POINT('Ctrl Pts',(3.65572581317939,-50.8,26.1817207226721));
#342=CARTESIAN_POINT('Ctrl Pts',(-1.66533453693773E-15,-50.8,26.1817207226721));
#343=CARTESIAN_POINT('Origin',(0.,0.,63.9));
#344=CARTESIAN_POINT('Origin',(-120.,0.,0.));
#345=CARTESIAN_POINT('',(-120.,-57.15,-6.99885645712712E-15));
#346=CARTESIAN_POINT('Origin',(-120.,0.,0.));
#347=CARTESIAN_POINT('Origin',(0.,0.,0.));
#348=CARTESIAN_POINT('',(120.,-57.15,-6.99885645712712E-15));
#349=CARTESIAN_POINT('Origin',(120.,0.,0.));
#350=CARTESIAN_POINT('',(0.,-57.15,-6.99885645712712E-15));
#351=CARTESIAN_POINT('Origin',(120.,0.,0.));
#352=UNCERTAINTY_MEASURE_WITH_UNIT(LENGTH_MEASURE(0.01),#356,
'DISTANCE_ACCURACY_VALUE',
'Maximum model space distance between geometric entities at asserted c
onnectivities');
#353=UNCERTAINTY_MEASURE_WITH_UNIT(LENGTH_MEASURE(0.01),#356,
'DISTANCE_ACCURACY_VALUE',
'Maximum model space distance between geometric entities at asserted c
onnectivities');
#354=(
GEOMETRIC_REPRESENTATION_CONTEXT(3)
GLOBAL_UNCERTAINTY_ASSIGNED_CONTEXT((#352))
GLOBAL_UNIT_ASSIGNED_CONTEXT((#356,#358,#359))
REPRESENTATION_CONTEXT('','3D')
);
#355=(
GEOMETRIC_REPRESENTATION_CONTEXT(3)
GLOBAL_UNCERTAINTY_ASSIGNED_CONTEXT((#353))
GLOBAL_UNIT_ASSIGNED_CONTEXT((#356,#358,#359))
REPRESENTATION_CONTEXT('','3D')
);
#356=(
LENGTH_UNIT()
NAMED_UNIT(*)
SI_UNIT(.MILLI.,.METRE.)
);
#357=(
LENGTH_UNIT()
NAMED_UNIT(*)
SI_UNIT(.CENTI.,.METRE.)
);
#358=(
NAMED_UNIT(*)
PLANE_ANGLE_UNIT()
SI_UNIT($,.RADIAN.)
);
#359=(
NAMED_UNIT(*)
SI_UNIT($,.STERADIAN.)
SOLID_ANGLE_UNIT()
);
#360=SHAPE_DEFINITION_REPRESENTATION(#361,#362);
#361=PRODUCT_DEFINITION_SHAPE('',$,#364);
#362=SHAPE_REPRESENTATION('',(#142),#354);
#363=PRODUCT_DEFINITION_CONTEXT('part definition',#368,'design');
#364=PRODUCT_DEFINITION('T-8 45\X\D740','T-8 45\X\D740',#365,#363);
#365=PRODUCT_DEFINITION_FORMATION('',$,#370);
#366=PRODUCT_RELATED_PRODUCT_CATEGORY('T-8 45\X\D740','T-8 45\X\D740',(#370));
#367=APPLICATION_PROTOCOL_DEFINITION('international standard',
'automotive_design',2009,#368);
#368=APPLICATION_CONTEXT(
'Core Data for Automotive Mechanical Design Process');
#369=PRODUCT_CONTEXT('part definition',#368,'mechanical');
#370=PRODUCT('T-8 45\X\D740','T-8 45\X\D740',$,(#369));
#371=PRESENTATION_STYLE_ASSIGNMENT((#372));
#372=SURFACE_STYLE_USAGE(.BOTH.,#375);
#373=SURFACE_STYLE_RENDERING_WITH_PROPERTIES($,#379,(#374));
#374=SURFACE_STYLE_TRANSPARENT(0.);
#375=SURFACE_SIDE_STYLE('',(#376,#373));
#376=SURFACE_STYLE_FILL_AREA(#377);
#377=FILL_AREA_STYLE('',(#378));
#378=FILL_AREA_STYLE_COLOUR('',#379);
#379=COLOUR_RGB('',0.749019607843137,0.749019607843137,0.749019607843137);
ENDSEC;
END-ISO-10303-21;
