ISO-10303-21;
HEADER;
/* Generated by software containing ST-Developer
 * from STEP Tools, Inc. (www.steptools.com) 
 */

FILE_DESCRIPTION(
/* description */ (''),
/* implementation_level */ '2;1');

FILE_NAME(
/* name */ 
'\\\\Tske00\\w\\Work\\TOSTE\\\X2\7D99624B\X0\\\02_\X2\6EB663A5\X0\\\\X2\6EB663A5752830C130FC30BA\X0\\\
T-8\\T-8 45\X\D730.stp',
/* time_stamp */ '2022-04-28T09:42:39+09:00',
/* author */ ('3dcad-eng'),
/* organization */ (''),
/* preprocessor_version */ 'ST-DEVELOPER v18.1',
/* originating_system */ 'Autodesk Inventor 2022',
/* authorisation */ '');

FILE_SCHEMA (('AUTOMOTIVE_DESIGN { 1 0 10303 214 3 1 1 }'));
ENDSEC;

DATA;
#10=MECHANICAL_DESIGN_GEOMETRIC_PRESENTATION_REPRESENTATION('',(#13),#355);
#11=SHAPE_REPRESENTATION_RELATIONSHIP('SRR','None',#362,#12);
#12=ADVANCED_BREP_SHAPE_REPRESENTATION('',(#14),#354);
#13=STYLED_ITEM('',(#371),#14);
#14=MANIFOLD_SOLID_BREP('\X2\30BD30EA30C330C9\X0\1',#123);
#15=PLANE('',#150);
#16=PLANE('',#151);
#17=PLANE('',#155);
#18=FACE_BOUND('',#32,.T.);
#19=FACE_BOUND('',#35,.T.);
#20=FACE_BOUND('',#37,.T.);
#21=FACE_BOUND('',#39,.T.);
#22=FACE_BOUND('',#41,.T.);
#23=FACE_OUTER_BOUND('',#30,.T.);
#24=FACE_OUTER_BOUND('',#31,.T.);
#25=FACE_OUTER_BOUND('',#33,.T.);
#26=FACE_OUTER_BOUND('',#34,.T.);
#27=FACE_OUTER_BOUND('',#36,.T.);
#28=FACE_OUTER_BOUND('',#38,.T.);
#29=FACE_OUTER_BOUND('',#40,.T.);
#30=EDGE_LOOP('',(#84,#85,#86,#87,#88));
#31=EDGE_LOOP('',(#89,#90,#91,#92));
#32=EDGE_LOOP('',(#93,#94));
#33=EDGE_LOOP('',(#95,#96,#97,#98,#99));
#34=EDGE_LOOP('',(#100));
#35=EDGE_LOOP('',(#101));
#36=EDGE_LOOP('',(#102));
#37=EDGE_LOOP('',(#103));
#38=EDGE_LOOP('',(#104,#105,#106,#107));
#39=EDGE_LOOP('',(#108,#109));
#40=EDGE_LOOP('',(#110));
#41=EDGE_LOOP('',(#111));
#42=CIRCLE('',#144,36.15);
#43=CIRCLE('',#146,54.15);
#44=CIRCLE('',#147,54.15);
#45=CIRCLE('',#149,38.15);
#46=CIRCLE('',#152,57.15);
#47=CIRCLE('',#154,57.15);
#48=LINE('',#261,#52);
#49=LINE('',#267,#53);
#50=LINE('',#273,#54);
#51=LINE('',#350,#55);
#52=VECTOR('',#160,36.15);
#53=VECTOR('',#167,54.15);
#54=VECTOR('',#174,38.15);
#55=VECTOR('',#185,57.15);
#56=B_SPLINE_CURVE_WITH_KNOTS('',3,(#192,#193,#194,#195,#196,#197,#198,
#199,#200,#201,#202,#203,#204,#205,#206,#207,#208,#209,#210,#211,#212,#213,
#214,#215,#216,#217,#218,#219,#220,#221,#222,#223,#224,#225,#226,#227,#228,
#229,#230,#231,#232,#233,#234,#235,#236,#237,#238,#239,#240,#241),
 .UNSPECIFIED.,.F.,.F.,(4,2,2,2,2,2,2,2,2,2,2,2,2,2,2,2,2,2,2,2,2,2,2,2,
4),(0.,0.713243607895061,1.42648721579012,2.13973082368518,2.85297443158024,
3.5583142581369,4.26365408469355,4.96899391125021,5.67433373780686,6.37967356436351,
7.08501339092017,7.79035321747682,8.49569304403348,9.20893665192854,9.9221802598236,
10.6354238677187,11.3486674756137,12.0619110835088,12.7751546914038,13.4883982992989,
14.201641907194,14.9069817337506,15.6123215603073,16.3176613868639,17.0230012134206),
 .UNSPECIFIED.);
#57=B_SPLINE_CURVE_WITH_KNOTS('',3,(#242,#243,#244,#245,#246,#247,#248,
#249,#250,#251,#252,#253,#254,#255,#256,#257,#258,#259),.UNSPECIFIED.,.F.,
 .F.,(4,2,2,2,2,2,2,2,4),(17.0230012134206,17.7283410399772,18.4336808665339,
19.1390206930905,19.8443605196472,20.5576041275423,21.2708477354373,21.9840913433324,
22.6973349512274),.UNSPECIFIED.);
#58=B_SPLINE_CURVE_WITH_KNOTS('',3,(#275,#276,#277,#278,#279,#280,#281,
#282,#283,#284,#285,#286,#287,#288,#289,#290,#291,#292),.UNSPECIFIED.,.F.,
 .F.,(4,2,2,2,2,2,2,2,4),(0.,0.752696317845174,1.50539263569035,2.25808895353552,
3.0107852713807,3.75514378847785,4.49950230557501,5.24386082267217,5.98821933976932),
 .UNSPECIFIED.);
#59=B_SPLINE_CURVE_WITH_KNOTS('',3,(#293,#294,#295,#296,#297,#298,#299,
#300,#301,#302,#303,#304,#305,#306,#307,#308,#309,#310,#311,#312,#313,#314,
#315,#316,#317,#318,#319,#320,#321,#322,#323,#324,#325,#326,#327,#328,#329,
#330,#331,#332,#333,#334,#335,#336,#337,#338,#339,#340,#341,#342),
 .UNSPECIFIED.,.F.,.F.,(4,2,2,2,2,2,2,2,2,2,2,2,2,2,2,2,2,2,2,2,2,2,2,2,
4),(5.98821933976932,6.73257785686648,7.47693637396364,8.22129489106079,
8.96565340815795,9.71834972600312,10.4710460438483,11.2237423616935,11.9764386795386,
12.7291349973838,13.481831315229,14.2345276330742,14.9872239509193,15.7315824680165,
16.4759409851137,17.2202995022108,17.964658019308,18.7090165364051,19.4533750535023,
20.1977335705994,20.9420920876966,21.6947884055418,22.4474847233869,23.2001810412321,
23.9528773590773),.UNSPECIFIED.);
#60=VERTEX_POINT('',#190);
#61=VERTEX_POINT('',#191);
#62=VERTEX_POINT('',#260);
#63=VERTEX_POINT('',#264);
#64=VERTEX_POINT('',#266);
#65=VERTEX_POINT('',#270);
#66=VERTEX_POINT('',#272);
#67=VERTEX_POINT('',#274);
#68=VERTEX_POINT('',#345);
#69=VERTEX_POINT('',#348);
#70=EDGE_CURVE('',#60,#61,#56,.T.);
#71=EDGE_CURVE('',#61,#60,#57,.T.);
#72=EDGE_CURVE('',#61,#62,#48,.T.);
#73=EDGE_CURVE('',#62,#62,#42,.T.);
#74=EDGE_CURVE('',#63,#63,#43,.T.);
#75=EDGE_CURVE('',#63,#64,#49,.T.);
#76=EDGE_CURVE('',#64,#64,#44,.T.);
#77=EDGE_CURVE('',#65,#65,#45,.T.);
#78=EDGE_CURVE('',#65,#66,#50,.T.);
#79=EDGE_CURVE('',#67,#66,#58,.T.);
#80=EDGE_CURVE('',#66,#67,#59,.T.);
#81=EDGE_CURVE('',#68,#68,#46,.T.);
#82=EDGE_CURVE('',#69,#69,#47,.T.);
#83=EDGE_CURVE('',#69,#68,#51,.T.);
#84=ORIENTED_EDGE('',*,*,#70,.F.);
#85=ORIENTED_EDGE('',*,*,#71,.F.);
#86=ORIENTED_EDGE('',*,*,#72,.T.);
#87=ORIENTED_EDGE('',*,*,#73,.F.);
#88=ORIENTED_EDGE('',*,*,#72,.F.);
#89=ORIENTED_EDGE('',*,*,#74,.F.);
#90=ORIENTED_EDGE('',*,*,#75,.T.);
#91=ORIENTED_EDGE('',*,*,#76,.F.);
#92=ORIENTED_EDGE('',*,*,#75,.F.);
#93=ORIENTED_EDGE('',*,*,#70,.T.);
#94=ORIENTED_EDGE('',*,*,#71,.T.);
#95=ORIENTED_EDGE('',*,*,#77,.F.);
#96=ORIENTED_EDGE('',*,*,#78,.T.);
#97=ORIENTED_EDGE('',*,*,#79,.F.);
#98=ORIENTED_EDGE('',*,*,#80,.F.);
#99=ORIENTED_EDGE('',*,*,#78,.F.);
#100=ORIENTED_EDGE('',*,*,#77,.T.);
#101=ORIENTED_EDGE('',*,*,#73,.T.);
#102=ORIENTED_EDGE('',*,*,#81,.T.);
#103=ORIENTED_EDGE('',*,*,#74,.T.);
#104=ORIENTED_EDGE('',*,*,#82,.F.);
#105=ORIENTED_EDGE('',*,*,#83,.T.);
#106=ORIENTED_EDGE('',*,*,#81,.F.);
#107=ORIENTED_EDGE('',*,*,#83,.F.);
#108=ORIENTED_EDGE('',*,*,#79,.T.);
#109=ORIENTED_EDGE('',*,*,#80,.T.);
#110=ORIENTED_EDGE('',*,*,#82,.T.);
#111=ORIENTED_EDGE('',*,*,#76,.T.);
#112=CYLINDRICAL_SURFACE('',#143,36.15);
#113=CYLINDRICAL_SURFACE('',#145,54.15);
#114=CYLINDRICAL_SURFACE('',#148,38.15);
#115=CYLINDRICAL_SURFACE('',#153,57.15);
#116=ADVANCED_FACE('',(#23),#112,.F.);
#117=ADVANCED_FACE('',(#24,#18),#113,.F.);
#118=ADVANCED_FACE('',(#25),#114,.T.);
#119=ADVANCED_FACE('',(#26,#19),#15,.T.);
#120=ADVANCED_FACE('',(#27,#20),#16,.F.);
#121=ADVANCED_FACE('',(#28,#21),#115,.T.);
#122=ADVANCED_FACE('',(#29,#22),#17,.T.);
#123=CLOSED_SHELL('',(#116,#117,#118,#119,#120,#121,#122));
#124=DERIVED_UNIT_ELEMENT(#126,1.);
#125=DERIVED_UNIT_ELEMENT(#357,-3.);
#126=(
MASS_UNIT()
NAMED_UNIT(*)
SI_UNIT($,.GRAM.)
);
#127=DERIVED_UNIT((#124,#125));
#128=MEASURE_REPRESENTATION_ITEM('density measure',
POSITIVE_RATIO_MEASURE(1.),#127);
#129=PROPERTY_DEFINITION_REPRESENTATION(#134,#131);
#130=PROPERTY_DEFINITION_REPRESENTATION(#135,#132);
#131=REPRESENTATION('material name',(#133),#354);
#132=REPRESENTATION('density',(#128),#354);
#133=DESCRIPTIVE_REPRESENTATION_ITEM('\X2\4E00822C\X0\','\X2\4E00822C\X0\');
#134=PROPERTY_DEFINITION('material property','material name',#364);
#135=PROPERTY_DEFINITION('material property','density of part',#364);
#136=DATE_TIME_ROLE('creation_date');
#137=APPLIED_DATE_AND_TIME_ASSIGNMENT(#138,#136,(#364));
#138=DATE_AND_TIME(#139,#140);
#139=CALENDAR_DATE(2022,31,3);
#140=LOCAL_TIME(0,0,0.,#141);
#141=COORDINATED_UNIVERSAL_TIME_OFFSET(0,0,.BEHIND.);
#142=AXIS2_PLACEMENT_3D('placement',#188,#156,#157);
#143=AXIS2_PLACEMENT_3D('',#189,#158,#159);
#144=AXIS2_PLACEMENT_3D('',#262,#161,#162);
#145=AXIS2_PLACEMENT_3D('',#263,#163,#164);
#146=AXIS2_PLACEMENT_3D('',#265,#165,#166);
#147=AXIS2_PLACEMENT_3D('',#268,#168,#169);
#148=AXIS2_PLACEMENT_3D('',#269,#170,#171);
#149=AXIS2_PLACEMENT_3D('',#271,#172,#173);
#150=AXIS2_PLACEMENT_3D('',#343,#175,#176);
#151=AXIS2_PLACEMENT_3D('',#344,#177,#178);
#152=AXIS2_PLACEMENT_3D('',#346,#179,#180);
#153=AXIS2_PLACEMENT_3D('',#347,#181,#182);
#154=AXIS2_PLACEMENT_3D('',#349,#183,#184);
#155=AXIS2_PLACEMENT_3D('',#351,#186,#187);
#156=DIRECTION('axis',(0.,0.,1.));
#157=DIRECTION('refdir',(1.,0.,0.));
#158=DIRECTION('center_axis',(0.,0.,1.));
#159=DIRECTION('ref_axis',(1.,0.,0.));
#160=DIRECTION('',(0.,0.,1.));
#161=DIRECTION('center_axis',(0.,0.,-1.));
#162=DIRECTION('ref_axis',(1.,0.,0.));
#163=DIRECTION('center_axis',(1.,0.,0.));
#164=DIRECTION('ref_axis',(0.,1.,0.));
#165=DIRECTION('center_axis',(1.,0.,0.));
#166=DIRECTION('ref_axis',(0.,1.,0.));
#167=DIRECTION('',(1.,0.,0.));
#168=DIRECTION('center_axis',(-1.,0.,0.));
#169=DIRECTION('ref_axis',(0.,1.,0.));
#170=DIRECTION('center_axis',(0.,0.,1.));
#171=DIRECTION('ref_axis',(1.,0.,0.));
#172=DIRECTION('center_axis',(0.,0.,1.));
#173=DIRECTION('ref_axis',(1.,0.,0.));
#174=DIRECTION('',(0.,0.,-1.));
#175=DIRECTION('center_axis',(0.,0.,1.));
#176=DIRECTION('ref_axis',(1.,0.,0.));
#177=DIRECTION('center_axis',(1.,0.,0.));
#178=DIRECTION('ref_axis',(0.,0.,-1.));
#179=DIRECTION('center_axis',(-1.,0.,0.));
#180=DIRECTION('ref_axis',(0.,1.,0.));
#181=DIRECTION('center_axis',(1.,0.,0.));
#182=DIRECTION('ref_axis',(0.,1.,0.));
#183=DIRECTION('center_axis',(1.,0.,0.));
#184=DIRECTION('ref_axis',(0.,1.,0.));
#185=DIRECTION('',(-1.,0.,0.));
#186=DIRECTION('center_axis',(1.,0.,0.));
#187=DIRECTION('ref_axis',(0.,0.,-1.));
#188=CARTESIAN_POINT('',(0.,0.,0.));
#189=CARTESIAN_POINT('Origin',(0.,0.,0.));
#190=CARTESIAN_POINT('',(-1.11022302462516E-15,-36.15,40.3162498255976));
#191=CARTESIAN_POINT('',(-36.15,-8.25770308677395E-16,54.15));
#192=CARTESIAN_POINT('Ctrl Pts',(5.55111512312578E-16,-36.15,40.3162498255976));
#193=CARTESIAN_POINT('Ctrl Pts',(2.37747869298354,-36.15,40.3162498255976));
#194=CARTESIAN_POINT('Ctrl Pts',(4.79180033226969,-35.9122833205921,40.5330766820138));
#195=CARTESIAN_POINT('Ctrl Pts',(9.52562951974153,-34.9559126662731,41.3606886335905));
#196=CARTESIAN_POINT('Ctrl Pts',(11.8457096299204,-34.2378341300977,41.9688614553503));
#197=CARTESIAN_POINT('Ctrl Pts',(16.2559303821954,-32.3773880690118,43.4202606351265));
#198=CARTESIAN_POINT('Ctrl Pts',(18.350765305398,-31.233441475292,44.2624845856538));
#199=CARTESIAN_POINT('Ctrl Pts',(22.2176322419895,-28.612152518227,46.0004362598567));
#200=CARTESIAN_POINT('Ctrl Pts',(23.9897062447738,-27.1341140350136,46.8950203687197));
#201=CARTESIAN_POINT('Ctrl Pts',(27.1166917186144,-24.007128561173,48.5694426334327));
#202=CARTESIAN_POINT('Ctrl Pts',(28.5915001129681,-22.2444298019159,49.414176765103));
#203=CARTESIAN_POINT('Ctrl Pts',(31.2185936623733,-18.3762876041672,50.9792857581865));
#204=CARTESIAN_POINT('Ctrl Pts',(32.3710375020602,-16.2705950616391,51.6987784666119));
#205=CARTESIAN_POINT('Ctrl Pts',(34.2424551780952,-11.8351444403022,52.8906923564545));
#206=CARTESIAN_POINT('Ctrl Pts',(34.9629659083455,-9.50065963882981,53.3636640798665));
#207=CARTESIAN_POINT('Ctrl Pts',(35.9169337691863,-4.7587169850982,53.9934976667863));
#208=CARTESIAN_POINT('Ctrl Pts',(36.15,-2.35113275518885,54.15));
#209=CARTESIAN_POINT('Ctrl Pts',(36.15,2.35113275518885,54.15));
#210=CARTESIAN_POINT('Ctrl Pts',(35.9169337691863,4.7587169850982,53.9934976667863));
#211=CARTESIAN_POINT('Ctrl Pts',(34.9629659083455,9.50065963882981,53.3636640798665));
#212=CARTESIAN_POINT('Ctrl Pts',(34.2424551780952,11.8351444403022,52.8906923564545));
#213=CARTESIAN_POINT('Ctrl Pts',(32.3710375020602,16.2705950616391,51.6987784666119));
#214=CARTESIAN_POINT('Ctrl Pts',(31.2185936623733,18.3762876041672,50.9792857581865));
#215=CARTESIAN_POINT('Ctrl Pts',(28.5915001129681,22.2444298019159,49.414176765103));
#216=CARTESIAN_POINT('Ctrl Pts',(27.1166917186144,24.007128561173,48.5694426334327));
#217=CARTESIAN_POINT('Ctrl Pts',(23.9897062447738,27.1341140350136,46.8950203687197));
#218=CARTESIAN_POINT('Ctrl Pts',(22.2176322419895,28.612152518227,46.0004362598567));
#219=CARTESIAN_POINT('Ctrl Pts',(18.350765305398,31.233441475292,44.2624845856538));
#220=CARTESIAN_POINT('Ctrl Pts',(16.2559303821954,32.3773880690118,43.4202606351265));
#221=CARTESIAN_POINT('Ctrl Pts',(11.8457096299204,34.2378341300977,41.9688614553503));
#222=CARTESIAN_POINT('Ctrl Pts',(9.52562951974153,34.9559126662731,41.3606886335905));
#223=CARTESIAN_POINT('Ctrl Pts',(4.79180033226969,35.9122833205921,40.5330766820138));
#224=CARTESIAN_POINT('Ctrl Pts',(2.37747869298353,36.15,40.3162498255976));
#225=CARTESIAN_POINT('Ctrl Pts',(-2.37747869298354,36.15,40.3162498255976));
#226=CARTESIAN_POINT('Ctrl Pts',(-4.79180033226969,35.9122833205921,40.5330766820138));
#227=CARTESIAN_POINT('Ctrl Pts',(-9.52562951974153,34.9559126662731,41.3606886335905));
#228=CARTESIAN_POINT('Ctrl Pts',(-11.8457096299204,34.2378341300977,41.9688614553503));
#229=CARTESIAN_POINT('Ctrl Pts',(-16.2559303821954,32.3773880690118,43.4202606351265));
#230=CARTESIAN_POINT('Ctrl Pts',(-18.350765305398,31.233441475292,44.2624845856538));
#231=CARTESIAN_POINT('Ctrl Pts',(-22.2176322419895,28.612152518227,46.0004362598567));
#232=CARTESIAN_POINT('Ctrl Pts',(-23.9897062447738,27.1341140350136,46.8950203687197));
#233=CARTESIAN_POINT('Ctrl Pts',(-27.1166917186144,24.007128561173,48.5694426334327));
#234=CARTESIAN_POINT('Ctrl Pts',(-28.5915001129681,22.2444298019159,49.414176765103));
#235=CARTESIAN_POINT('Ctrl Pts',(-31.2185936623733,18.3762876041672,50.9792857581865));
#236=CARTESIAN_POINT('Ctrl Pts',(-32.3710375020602,16.2705950616391,51.6987784666119));
#237=CARTESIAN_POINT('Ctrl Pts',(-34.2424551780952,11.8351444403022,52.8906923564545));
#238=CARTESIAN_POINT('Ctrl Pts',(-34.9629659083455,9.50065963882982,53.3636640798665));
#239=CARTESIAN_POINT('Ctrl Pts',(-35.9169337691863,4.75871698509822,53.9934976667863));
#240=CARTESIAN_POINT('Ctrl Pts',(-36.15,2.35113275518886,54.15));
#241=CARTESIAN_POINT('Ctrl Pts',(-36.15,2.77555756156289E-15,54.15));
#242=CARTESIAN_POINT('Ctrl Pts',(-36.15,3.33066907387547E-15,54.15));
#243=CARTESIAN_POINT('Ctrl Pts',(-36.15,-2.35113275518885,54.15));
#244=CARTESIAN_POINT('Ctrl Pts',(-35.9169337691863,-4.75871698509821,53.9934976667863));
#245=CARTESIAN_POINT('Ctrl Pts',(-34.9629659083455,-9.50065963882982,53.3636640798665));
#246=CARTESIAN_POINT('Ctrl Pts',(-34.2424551780952,-11.8351444403022,52.8906923564545));
#247=CARTESIAN_POINT('Ctrl Pts',(-32.3710375020602,-16.2705950616391,51.6987784666119));
#248=CARTESIAN_POINT('Ctrl Pts',(-31.2185936623732,-18.3762876041673,50.9792857581865));
#249=CARTESIAN_POINT('Ctrl Pts',(-28.5915001129681,-22.2444298019159,49.414176765103));
#250=CARTESIAN_POINT('Ctrl Pts',(-27.1166917186144,-24.007128561173,48.5694426334327));
#251=CARTESIAN_POINT('Ctrl Pts',(-23.9897062447738,-27.1341140350136,46.8950203687197));
#252=CARTESIAN_POINT('Ctrl Pts',(-22.2176322419896,-28.612152518227,46.0004362598567));
#253=CARTESIAN_POINT('Ctrl Pts',(-18.350765305398,-31.233441475292,44.2624845856538));
#254=CARTESIAN_POINT('Ctrl Pts',(-16.2559303821954,-32.3773880690118,43.4202606351265));
#255=CARTESIAN_POINT('Ctrl Pts',(-11.8457096299204,-34.2378341300977,41.9688614553503));
#256=CARTESIAN_POINT('Ctrl Pts',(-9.52562951974153,-34.9559126662731,41.3606886335905));
#257=CARTESIAN_POINT('Ctrl Pts',(-4.79180033226968,-35.9122833205921,40.5330766820138));
#258=CARTESIAN_POINT('Ctrl Pts',(-2.37747869298353,-36.15,40.3162498255976));
#259=CARTESIAN_POINT('Ctrl Pts',(1.11022302462516E-15,-36.15,40.3162498255976));
#260=CARTESIAN_POINT('',(-36.15,4.42709817891768E-15,62.9));
#261=CARTESIAN_POINT('',(-36.15,-4.42709817891768E-15,0.));
#262=CARTESIAN_POINT('Origin',(0.,0.,62.9));
#263=CARTESIAN_POINT('Origin',(0.,0.,0.));
#264=CARTESIAN_POINT('',(-120.,-54.15,-6.63146241738292E-15));
#265=CARTESIAN_POINT('Origin',(-120.,0.,0.));
#266=CARTESIAN_POINT('',(120.,-54.15,6.63146241738292E-15));
#267=CARTESIAN_POINT('',(0.,-54.15,-6.63146241738292E-15));
#268=CARTESIAN_POINT('Origin',(120.,0.,0.));
#269=CARTESIAN_POINT('Origin',(0.,0.,0.));
#270=CARTESIAN_POINT('',(-38.15,-4.67202753874715E-15,62.9));
#271=CARTESIAN_POINT('Origin',(0.,0.,62.9));
#272=CARTESIAN_POINT('',(-38.15,-3.72379255015502E-15,57.15));
#273=CARTESIAN_POINT('',(-38.15,-4.67202753874715E-15,0.));
#274=CARTESIAN_POINT('',(-5.55111512312578E-16,-38.15,42.5523207357719));
#275=CARTESIAN_POINT('Ctrl Pts',(-5.55111512312578E-16,-38.15,42.5523207357719));
#276=CARTESIAN_POINT('Ctrl Pts',(-2.50898772615058,-38.15,42.5523207357719));
#277=CARTESIAN_POINT('Ctrl Pts',(-5.0568692062349,-37.8991363254281,42.7811089416637));
#278=CARTESIAN_POINT('Ctrl Pts',(-10.0525890325466,-36.889862008087,43.654391451806));
#279=CARTESIAN_POINT('Ctrl Pts',(-12.5010313837757,-36.1320585912751,44.2961298731888));
#280=CARTESIAN_POINT('Ctrl Pts',(-17.1552599567267,-34.1686838225525,45.8276495420461));
#281=CARTESIAN_POINT('Ctrl Pts',(-19.3660001777167,-32.9614461033519,46.7163730760259));
#282=CARTESIAN_POINT('Ctrl Pts',(-23.4468153543462,-30.1951277921465,48.5502904206162));
#283=CARTESIAN_POINT('Ctrl Pts',(-25.3169347078117,-28.6353126967219,49.4942772252673));
#284=CARTESIAN_POINT('Ctrl Pts',(-28.6169334554381,-25.3353139490955,51.2611786770993));
#285=CARTESIAN_POINT('Ctrl Pts',(-30.1733413547086,-23.475084467824,52.1525726545241));
#286=CARTESIAN_POINT('Ctrl Pts',(-32.9457835955303,-19.3929230146347,53.8041351769477));
#287=CARTESIAN_POINT('Ctrl Pts',(-34.161985428761,-17.1707281950941,54.5633727318136));
#288=CARTESIAN_POINT('Ctrl Pts',(-36.1369341926941,-12.4898837348088,55.8211284445007));
#289=CARTESIAN_POINT('Ctrl Pts',(-36.897303020971,-10.0262460278503,56.320227459143));
#290=CARTESIAN_POINT('Ctrl Pts',(-37.9040421774676,-5.02196836801833,56.984852936645));
#291=CARTESIAN_POINT('Ctrl Pts',(-38.15,-2.48119505699053,57.15));
#292=CARTESIAN_POINT('Ctrl Pts',(-38.15,-4.44089209850063E-15,57.15));
#293=CARTESIAN_POINT('Ctrl Pts',(-38.15,-3.33066907387547E-15,57.15));
#294=CARTESIAN_POINT('Ctrl Pts',(-38.15,2.48119505699052,57.15));
#295=CARTESIAN_POINT('Ctrl Pts',(-37.9040421774676,5.02196836801832,56.984852936645));
#296=CARTESIAN_POINT('Ctrl Pts',(-36.897303020971,10.0262460278503,56.320227459143));
#297=CARTESIAN_POINT('Ctrl Pts',(-36.1369341926941,12.4898837348088,55.8211284445007));
#298=CARTESIAN_POINT('Ctrl Pts',(-34.161985428761,17.1707281950941,54.5633727318136));
#299=CARTESIAN_POINT('Ctrl Pts',(-32.9457835955303,19.3929230146347,53.8041351769477));
#300=CARTESIAN_POINT('Ctrl Pts',(-30.1733413547086,23.475084467824,52.1525726545241));
#301=CARTESIAN_POINT('Ctrl Pts',(-28.6169334554381,25.3353139490955,51.2611786770993));
#302=CARTESIAN_POINT('Ctrl Pts',(-25.3169347078117,28.6353126967219,49.4942772252673));
#303=CARTESIAN_POINT('Ctrl Pts',(-23.4468153543462,30.1951277921464,48.5502904206162));
#304=CARTESIAN_POINT('Ctrl Pts',(-19.3660001777167,32.9614461033519,46.7163730760259));
#305=CARTESIAN_POINT('Ctrl Pts',(-17.1552599567267,34.1686838225525,45.8276495420461));
#306=CARTESIAN_POINT('Ctrl Pts',(-12.5010313837757,36.1320585912751,44.2961298731888));
#307=CARTESIAN_POINT('Ctrl Pts',(-10.0525890325466,36.889862008087,43.654391451806));
#308=CARTESIAN_POINT('Ctrl Pts',(-5.0568692062349,37.8991363254281,42.7811089416637));
#309=CARTESIAN_POINT('Ctrl Pts',(-2.50898772615058,38.15,42.5523207357719));
#310=CARTESIAN_POINT('Ctrl Pts',(2.50898772615058,38.15,42.5523207357719));
#311=CARTESIAN_POINT('Ctrl Pts',(5.05686920623491,37.8991363254281,42.7811089416637));
#312=CARTESIAN_POINT('Ctrl Pts',(10.0525890325466,36.889862008087,43.654391451806));
#313=CARTESIAN_POINT('Ctrl Pts',(12.5010313837757,36.1320585912751,44.2961298731888));
#314=CARTESIAN_POINT('Ctrl Pts',(17.1552599567267,34.1686838225525,45.8276495420461));
#315=CARTESIAN_POINT('Ctrl Pts',(19.3660001777167,32.961446103352,46.7163730760259));
#316=CARTESIAN_POINT('Ctrl Pts',(23.4468153543462,30.1951277921465,48.5502904206162));
#317=CARTESIAN_POINT('Ctrl Pts',(25.3169347078117,28.6353126967219,49.4942772252673));
#318=CARTESIAN_POINT('Ctrl Pts',(28.6169334554381,25.3353139490955,51.2611786770993));
#319=CARTESIAN_POINT('Ctrl Pts',(30.1733413547086,23.475084467824,52.1525726545241));
#320=CARTESIAN_POINT('Ctrl Pts',(32.9457835955303,19.3929230146347,53.8041351769477));
#321=CARTESIAN_POINT('Ctrl Pts',(34.161985428761,17.1707281950941,54.5633727318136));
#322=CARTESIAN_POINT('Ctrl Pts',(36.1369341926941,12.4898837348089,55.8211284445007));
#323=CARTESIAN_POINT('Ctrl Pts',(36.897303020971,10.0262460278503,56.320227459143));
#324=CARTESIAN_POINT('Ctrl Pts',(37.9040421774676,5.02196836801834,56.984852936645));
#325=CARTESIAN_POINT('Ctrl Pts',(38.15,2.48119505699054,57.15));
#326=CARTESIAN_POINT('Ctrl Pts',(38.15,-2.48119505699052,57.15));
#327=CARTESIAN_POINT('Ctrl Pts',(37.9040421774676,-5.02196836801832,56.984852936645));
#328=CARTESIAN_POINT('Ctrl Pts',(36.897303020971,-10.0262460278503,56.320227459143));
#329=CARTESIAN_POINT('Ctrl Pts',(36.1369341926941,-12.4898837348088,55.8211284445007));
#330=CARTESIAN_POINT('Ctrl Pts',(34.161985428761,-17.1707281950941,54.5633727318136));
#331=CARTESIAN_POINT('Ctrl Pts',(32.9457835955303,-19.3929230146347,53.8041351769477));
#332=CARTESIAN_POINT('Ctrl Pts',(30.1733413547086,-23.475084467824,52.1525726545241));
#333=CARTESIAN_POINT('Ctrl Pts',(28.6169334554381,-25.3353139490954,51.2611786770993));
#334=CARTESIAN_POINT('Ctrl Pts',(25.3169347078117,-28.6353126967219,49.4942772252673));
#335=CARTESIAN_POINT('Ctrl Pts',(23.4468153543462,-30.1951277921464,48.5502904206162));
#336=CARTESIAN_POINT('Ctrl Pts',(19.3660001777167,-32.9614461033519,46.7163730760259));
#337=CARTESIAN_POINT('Ctrl Pts',(17.1552599567267,-34.1686838225525,45.8276495420461));
#338=CARTESIAN_POINT('Ctrl Pts',(12.5010313837757,-36.1320585912751,44.2961298731888));
#339=CARTESIAN_POINT('Ctrl Pts',(10.0525890325466,-36.889862008087,43.6543914518059));
#340=CARTESIAN_POINT('Ctrl Pts',(5.0568692062349,-37.8991363254281,42.7811089416637));
#341=CARTESIAN_POINT('Ctrl Pts',(2.50898772615058,-38.15,42.5523207357719));
#342=CARTESIAN_POINT('Ctrl Pts',(0.,-38.15,42.5523207357719));
#343=CARTESIAN_POINT('Origin',(0.,0.,62.9));
#344=CARTESIAN_POINT('Origin',(-120.,0.,0.));
#345=CARTESIAN_POINT('',(-120.,-57.15,-6.99885645712712E-15));
#346=CARTESIAN_POINT('Origin',(-120.,0.,0.));
#347=CARTESIAN_POINT('Origin',(0.,0.,0.));
#348=CARTESIAN_POINT('',(120.,-57.15,-6.99885645712712E-15));
#349=CARTESIAN_POINT('Origin',(120.,0.,0.));
#350=CARTESIAN_POINT('',(0.,-57.15,-6.99885645712712E-15));
#351=CARTESIAN_POINT('Origin',(120.,0.,0.));
#352=UNCERTAINTY_MEASURE_WITH_UNIT(LENGTH_MEASURE(0.01),#356,
'DISTANCE_ACCURACY_VALUE',
'Maximum model space distance between geometric entities at asserted c
onnectivities');
#353=UNCERTAINTY_MEASURE_WITH_UNIT(LENGTH_MEASURE(0.01),#356,
'DISTANCE_ACCURACY_VALUE',
'Maximum model space distance between geometric entities at asserted c
onnectivities');
#354=(
GEOMETRIC_REPRESENTATION_CONTEXT(3)
GLOBAL_UNCERTAINTY_ASSIGNED_CONTEXT((#352))
GLOBAL_UNIT_ASSIGNED_CONTEXT((#356,#358,#359))
REPRESENTATION_CONTEXT('','3D')
);
#355=(
GEOMETRIC_REPRESENTATION_CONTEXT(3)
GLOBAL_UNCERTAINTY_ASSIGNED_CONTEXT((#353))
GLOBAL_UNIT_ASSIGNED_CONTEXT((#356,#358,#359))
REPRESENTATION_CONTEXT('','3D')
);
#356=(
LENGTH_UNIT()
NAMED_UNIT(*)
SI_UNIT(.MILLI.,.METRE.)
);
#357=(
LENGTH_UNIT()
NAMED_UNIT(*)
SI_UNIT(.CENTI.,.METRE.)
);
#358=(
NAMED_UNIT(*)
PLANE_ANGLE_UNIT()
SI_UNIT($,.RADIAN.)
);
#359=(
NAMED_UNIT(*)
SI_UNIT($,.STERADIAN.)
SOLID_ANGLE_UNIT()
);
#360=SHAPE_DEFINITION_REPRESENTATION(#361,#362);
#361=PRODUCT_DEFINITION_SHAPE('',$,#364);
#362=SHAPE_REPRESENTATION('',(#142),#354);
#363=PRODUCT_DEFINITION_CONTEXT('part definition',#368,'design');
#364=PRODUCT_DEFINITION('T-8 45\X\D730','T-8 45\X\D730',#365,#363);
#365=PRODUCT_DEFINITION_FORMATION('',$,#370);
#366=PRODUCT_RELATED_PRODUCT_CATEGORY('T-8 45\X\D730','T-8 45\X\D730',(#370));
#367=APPLICATION_PROTOCOL_DEFINITION('international standard',
'automotive_design',2009,#368);
#368=APPLICATION_CONTEXT(
'Core Data for Automotive Mechanical Design Process');
#369=PRODUCT_CONTEXT('part definition',#368,'mechanical');
#370=PRODUCT('T-8 45\X\D730','T-8 45\X\D730',$,(#369));
#371=PRESENTATION_STYLE_ASSIGNMENT((#372));
#372=SURFACE_STYLE_USAGE(.BOTH.,#375);
#373=SURFACE_STYLE_RENDERING_WITH_PROPERTIES($,#379,(#374));
#374=SURFACE_STYLE_TRANSPARENT(0.);
#375=SURFACE_SIDE_STYLE('',(#376,#373));
#376=SURFACE_STYLE_FILL_AREA(#377);
#377=FILL_AREA_STYLE('',(#378));
#378=FILL_AREA_STYLE_COLOUR('',#379);
#379=COLOUR_RGB('',0.749019607843137,0.749019607843137,0.749019607843137);
ENDSEC;
END-ISO-10303-21;
