ISO-10303-21;
HEADER;
/* Generated by software containing ST-Developer
 * from STEP Tools, Inc. (www.steptools.com) 
 */

FILE_DESCRIPTION(
/* description */ (''),
/* implementation_level */ '2;1');

FILE_NAME(
/* name */ 
'\\\\Tske00\\w\\Work\\TOSTE\\\X2\7D99624B\X0\\\02_\X2\6EB663A5\X0\\\\X2\6EB663A5752830C130FC30BA\X0\\\
T-8\\T-8 45\X\D715.stp',
/* time_stamp */ '2022-04-28T09:42:37+09:00',
/* author */ ('3dcad-eng'),
/* organization */ (''),
/* preprocessor_version */ 'ST-DEVELOPER v18.1',
/* originating_system */ 'Autodesk Inventor 2022',
/* authorisation */ '');

FILE_SCHEMA (('AUTOMOTIVE_DESIGN { 1 0 10303 214 3 1 1 }'));
ENDSEC;

DATA;
#10=MECHANICAL_DESIGN_GEOMETRIC_PRESENTATION_REPRESENTATION('',(#13),#355);
#11=SHAPE_REPRESENTATION_RELATIONSHIP('SRR','None',#362,#12);
#12=ADVANCED_BREP_SHAPE_REPRESENTATION('',(#14),#354);
#13=STYLED_ITEM('',(#371),#14);
#14=MANIFOLD_SOLID_BREP('\X2\30BD30EA30C330C9\X0\1',#123);
#15=PLANE('',#150);
#16=PLANE('',#151);
#17=PLANE('',#155);
#18=FACE_BOUND('',#32,.T.);
#19=FACE_BOUND('',#35,.T.);
#20=FACE_BOUND('',#37,.T.);
#21=FACE_BOUND('',#39,.T.);
#22=FACE_BOUND('',#41,.T.);
#23=FACE_OUTER_BOUND('',#30,.T.);
#24=FACE_OUTER_BOUND('',#31,.T.);
#25=FACE_OUTER_BOUND('',#33,.T.);
#26=FACE_OUTER_BOUND('',#34,.T.);
#27=FACE_OUTER_BOUND('',#36,.T.);
#28=FACE_OUTER_BOUND('',#38,.T.);
#29=FACE_OUTER_BOUND('',#40,.T.);
#30=EDGE_LOOP('',(#84,#85,#86,#87,#88));
#31=EDGE_LOOP('',(#89,#90,#91,#92));
#32=EDGE_LOOP('',(#93,#94));
#33=EDGE_LOOP('',(#95,#96,#97,#98,#99));
#34=EDGE_LOOP('',(#100));
#35=EDGE_LOOP('',(#101));
#36=EDGE_LOOP('',(#102));
#37=EDGE_LOOP('',(#103));
#38=EDGE_LOOP('',(#104,#105,#106,#107));
#39=EDGE_LOOP('',(#108,#109));
#40=EDGE_LOOP('',(#110));
#41=EDGE_LOOP('',(#111));
#42=CIRCLE('',#144,17.85);
#43=CIRCLE('',#146,54.15);
#44=CIRCLE('',#147,54.15);
#45=CIRCLE('',#149,19.05);
#46=CIRCLE('',#152,57.15);
#47=CIRCLE('',#154,57.15);
#48=LINE('',#261,#52);
#49=LINE('',#267,#53);
#50=LINE('',#273,#54);
#51=LINE('',#350,#55);
#52=VECTOR('',#160,17.85);
#53=VECTOR('',#167,54.15);
#54=VECTOR('',#174,19.05);
#55=VECTOR('',#185,57.15);
#56=B_SPLINE_CURVE_WITH_KNOTS('',3,(#192,#193,#194,#195,#196,#197,#198,
#199,#200,#201,#202,#203,#204,#205,#206,#207,#208,#209,#210,#211,#212,#213,
#214,#215,#216,#217,#218,#219,#220,#221,#222,#223,#224,#225,#226,#227,#228,
#229,#230,#231,#232,#233,#234,#235,#236,#237,#238,#239,#240,#241),
 .UNSPECIFIED.,.F.,.F.,(4,2,2,2,2,2,2,2,2,2,2,2,2,2,2,2,2,2,2,2,2,2,2,2,
4),(0.,0.339025394819905,0.678050789639811,1.01707618445972,1.35610157927962,
1.69497696068321,2.03385234208679,2.37272772349038,2.71160310489396,3.05047848629755,
3.38935386770113,3.72822924910472,4.0671046305083,4.40613002532821,4.74515542014811,
5.08418081496802,5.42320620978793,5.76223160460783,6.10125699942774,6.44028239424764,
6.77930778906755,7.11818317047113,7.45705855187472,7.7959339332783,8.13480931468189),
 .UNSPECIFIED.);
#57=B_SPLINE_CURVE_WITH_KNOTS('',3,(#242,#243,#244,#245,#246,#247,#248,
#249,#250,#251,#252,#253,#254,#255,#256,#257,#258,#259),.UNSPECIFIED.,.F.,
 .F.,(4,2,2,2,2,2,2,2,4),(8.13480931468189,8.47368469608547,8.81256007748906,
9.15143545889265,9.49031084029623,9.82933623511613,10.168361629936,10.5073870247559,
10.8464124195759),.UNSPECIFIED.);
#58=B_SPLINE_CURVE_WITH_KNOTS('',3,(#275,#276,#277,#278,#279,#280,#281,
#282,#283,#284,#285,#286,#287,#288,#289,#290,#291,#292),.UNSPECIFIED.,.F.,
 .F.,(4,2,2,2,2,2,2,2,4),(0.,0.361891117615561,0.723782235231123,1.08567335284668,
1.44756447046225,1.8092877426982,2.17101101493416,2.53273428717012,2.89445755940607),
 .UNSPECIFIED.);
#59=B_SPLINE_CURVE_WITH_KNOTS('',3,(#293,#294,#295,#296,#297,#298,#299,
#300,#301,#302,#303,#304,#305,#306,#307,#308,#309,#310,#311,#312,#313,#314,
#315,#316,#317,#318,#319,#320,#321,#322,#323,#324,#325,#326,#327,#328,#329,
#330,#331,#332,#333,#334,#335,#336,#337,#338,#339,#340,#341,#342),
 .UNSPECIFIED.,.F.,.F.,(4,2,2,2,2,2,2,2,2,2,2,2,2,2,2,2,2,2,2,2,2,2,2,2,
4),(2.89445755940607,3.25618083164203,3.61790410387799,3.97962737611395,
4.3413506483499,4.70324176596546,5.06513288358102,5.42702400119659,5.78891511881215,
6.15080623642771,6.51269735404327,6.87458847165883,7.23647958927439,7.59820286151035,
7.95992613374631,8.32164940598226,8.68337267821822,9.04509595045418,9.40681922269013,
9.76854249492609,10.130265767162,10.4921568847776,10.8540480023932,11.2159391200087,
11.5778302376243),.UNSPECIFIED.);
#60=VERTEX_POINT('',#190);
#61=VERTEX_POINT('',#191);
#62=VERTEX_POINT('',#260);
#63=VERTEX_POINT('',#264);
#64=VERTEX_POINT('',#266);
#65=VERTEX_POINT('',#270);
#66=VERTEX_POINT('',#272);
#67=VERTEX_POINT('',#274);
#68=VERTEX_POINT('',#345);
#69=VERTEX_POINT('',#348);
#70=EDGE_CURVE('',#60,#61,#56,.T.);
#71=EDGE_CURVE('',#61,#60,#57,.T.);
#72=EDGE_CURVE('',#61,#62,#48,.T.);
#73=EDGE_CURVE('',#62,#62,#42,.T.);
#74=EDGE_CURVE('',#63,#63,#43,.T.);
#75=EDGE_CURVE('',#63,#64,#49,.T.);
#76=EDGE_CURVE('',#64,#64,#44,.T.);
#77=EDGE_CURVE('',#65,#65,#45,.T.);
#78=EDGE_CURVE('',#65,#66,#50,.T.);
#79=EDGE_CURVE('',#67,#66,#58,.T.);
#80=EDGE_CURVE('',#66,#67,#59,.T.);
#81=EDGE_CURVE('',#68,#68,#46,.T.);
#82=EDGE_CURVE('',#69,#69,#47,.T.);
#83=EDGE_CURVE('',#69,#68,#51,.T.);
#84=ORIENTED_EDGE('',*,*,#70,.F.);
#85=ORIENTED_EDGE('',*,*,#71,.F.);
#86=ORIENTED_EDGE('',*,*,#72,.T.);
#87=ORIENTED_EDGE('',*,*,#73,.F.);
#88=ORIENTED_EDGE('',*,*,#72,.F.);
#89=ORIENTED_EDGE('',*,*,#74,.F.);
#90=ORIENTED_EDGE('',*,*,#75,.T.);
#91=ORIENTED_EDGE('',*,*,#76,.F.);
#92=ORIENTED_EDGE('',*,*,#75,.F.);
#93=ORIENTED_EDGE('',*,*,#70,.T.);
#94=ORIENTED_EDGE('',*,*,#71,.T.);
#95=ORIENTED_EDGE('',*,*,#77,.F.);
#96=ORIENTED_EDGE('',*,*,#78,.T.);
#97=ORIENTED_EDGE('',*,*,#79,.F.);
#98=ORIENTED_EDGE('',*,*,#80,.F.);
#99=ORIENTED_EDGE('',*,*,#78,.F.);
#100=ORIENTED_EDGE('',*,*,#77,.T.);
#101=ORIENTED_EDGE('',*,*,#73,.T.);
#102=ORIENTED_EDGE('',*,*,#81,.T.);
#103=ORIENTED_EDGE('',*,*,#74,.T.);
#104=ORIENTED_EDGE('',*,*,#82,.F.);
#105=ORIENTED_EDGE('',*,*,#83,.T.);
#106=ORIENTED_EDGE('',*,*,#81,.F.);
#107=ORIENTED_EDGE('',*,*,#83,.F.);
#108=ORIENTED_EDGE('',*,*,#79,.T.);
#109=ORIENTED_EDGE('',*,*,#80,.T.);
#110=ORIENTED_EDGE('',*,*,#82,.T.);
#111=ORIENTED_EDGE('',*,*,#76,.T.);
#112=CYLINDRICAL_SURFACE('',#143,17.85);
#113=CYLINDRICAL_SURFACE('',#145,54.15);
#114=CYLINDRICAL_SURFACE('',#148,19.05);
#115=CYLINDRICAL_SURFACE('',#153,57.15);
#116=ADVANCED_FACE('',(#23),#112,.F.);
#117=ADVANCED_FACE('',(#24,#18),#113,.F.);
#118=ADVANCED_FACE('',(#25),#114,.T.);
#119=ADVANCED_FACE('',(#26,#19),#15,.T.);
#120=ADVANCED_FACE('',(#27,#20),#16,.F.);
#121=ADVANCED_FACE('',(#28,#21),#115,.T.);
#122=ADVANCED_FACE('',(#29,#22),#17,.T.);
#123=CLOSED_SHELL('',(#116,#117,#118,#119,#120,#121,#122));
#124=DERIVED_UNIT_ELEMENT(#126,1.);
#125=DERIVED_UNIT_ELEMENT(#357,-3.);
#126=(
MASS_UNIT()
NAMED_UNIT(*)
SI_UNIT($,.GRAM.)
);
#127=DERIVED_UNIT((#124,#125));
#128=MEASURE_REPRESENTATION_ITEM('density measure',
POSITIVE_RATIO_MEASURE(1.),#127);
#129=PROPERTY_DEFINITION_REPRESENTATION(#134,#131);
#130=PROPERTY_DEFINITION_REPRESENTATION(#135,#132);
#131=REPRESENTATION('material name',(#133),#354);
#132=REPRESENTATION('density',(#128),#354);
#133=DESCRIPTIVE_REPRESENTATION_ITEM('\X2\4E00822C\X0\','\X2\4E00822C\X0\');
#134=PROPERTY_DEFINITION('material property','material name',#364);
#135=PROPERTY_DEFINITION('material property','density of part',#364);
#136=DATE_TIME_ROLE('creation_date');
#137=APPLIED_DATE_AND_TIME_ASSIGNMENT(#138,#136,(#364));
#138=DATE_AND_TIME(#139,#140);
#139=CALENDAR_DATE(2022,31,3);
#140=LOCAL_TIME(0,0,0.,#141);
#141=COORDINATED_UNIVERSAL_TIME_OFFSET(0,0,.BEHIND.);
#142=AXIS2_PLACEMENT_3D('placement',#188,#156,#157);
#143=AXIS2_PLACEMENT_3D('',#189,#158,#159);
#144=AXIS2_PLACEMENT_3D('',#262,#161,#162);
#145=AXIS2_PLACEMENT_3D('',#263,#163,#164);
#146=AXIS2_PLACEMENT_3D('',#265,#165,#166);
#147=AXIS2_PLACEMENT_3D('',#268,#168,#169);
#148=AXIS2_PLACEMENT_3D('',#269,#170,#171);
#149=AXIS2_PLACEMENT_3D('',#271,#172,#173);
#150=AXIS2_PLACEMENT_3D('',#343,#175,#176);
#151=AXIS2_PLACEMENT_3D('',#344,#177,#178);
#152=AXIS2_PLACEMENT_3D('',#346,#179,#180);
#153=AXIS2_PLACEMENT_3D('',#347,#181,#182);
#154=AXIS2_PLACEMENT_3D('',#349,#183,#184);
#155=AXIS2_PLACEMENT_3D('',#351,#186,#187);
#156=DIRECTION('axis',(0.,0.,1.));
#157=DIRECTION('refdir',(1.,0.,0.));
#158=DIRECTION('center_axis',(0.,0.,1.));
#159=DIRECTION('ref_axis',(1.,0.,0.));
#160=DIRECTION('',(0.,0.,1.));
#161=DIRECTION('center_axis',(0.,0.,-1.));
#162=DIRECTION('ref_axis',(1.,0.,0.));
#163=DIRECTION('center_axis',(1.,0.,0.));
#164=DIRECTION('ref_axis',(0.,1.,0.));
#165=DIRECTION('center_axis',(1.,0.,0.));
#166=DIRECTION('ref_axis',(0.,1.,0.));
#167=DIRECTION('',(1.,0.,0.));
#168=DIRECTION('center_axis',(-1.,0.,0.));
#169=DIRECTION('ref_axis',(0.,1.,0.));
#170=DIRECTION('center_axis',(0.,0.,1.));
#171=DIRECTION('ref_axis',(1.,0.,0.));
#172=DIRECTION('center_axis',(0.,0.,1.));
#173=DIRECTION('ref_axis',(1.,0.,0.));
#174=DIRECTION('',(0.,0.,-1.));
#175=DIRECTION('center_axis',(0.,0.,1.));
#176=DIRECTION('ref_axis',(1.,0.,0.));
#177=DIRECTION('center_axis',(1.,0.,0.));
#178=DIRECTION('ref_axis',(0.,0.,-1.));
#179=DIRECTION('center_axis',(-1.,0.,0.));
#180=DIRECTION('ref_axis',(0.,1.,0.));
#181=DIRECTION('center_axis',(1.,0.,0.));
#182=DIRECTION('ref_axis',(0.,1.,0.));
#183=DIRECTION('center_axis',(1.,0.,0.));
#184=DIRECTION('ref_axis',(0.,1.,0.));
#185=DIRECTION('',(-1.,0.,0.));
#186=DIRECTION('center_axis',(1.,0.,0.));
#187=DIRECTION('ref_axis',(0.,0.,-1.));
#188=CARTESIAN_POINT('',(0.,0.,0.));
#189=CARTESIAN_POINT('Origin',(0.,0.,0.));
#190=CARTESIAN_POINT('',(-2.77555756156289E-16,-17.85,51.1233801699379));
#191=CARTESIAN_POINT('',(-17.85,-1.21552121692001E-16,54.15));
#192=CARTESIAN_POINT('Ctrl Pts',(2.77555756156289E-16,-17.85,51.1233801699379));
#193=CARTESIAN_POINT('Ctrl Pts',(1.13008464939969,-17.85,51.1233801699379));
#194=CARTESIAN_POINT('Ctrl Pts',(2.29578035089515,-17.7409545413032,51.1618909264913));
#195=CARTESIAN_POINT('Ctrl Pts',(4.60887036562314,-17.2849758315347,51.3177373003769));
#196=CARTESIAN_POINT('Ctrl Pts',(5.75630098515194,-16.9381732687549,51.4349163572503));
#197=CARTESIAN_POINT('Ctrl Pts',(7.95238417182094,-16.0248659003981,51.7267434235685));
#198=CARTESIAN_POINT('Ctrl Pts',(9.00294732430289,-15.4576365815845,51.9013092221583));
#199=CARTESIAN_POINT('Ctrl Pts',(10.9437576400903,-14.150115124066,52.2729248231974));
#200=CARTESIAN_POINT('Ctrl Pts',(11.8340014980288,-13.409710590331,52.4695963240855));
#201=CARTESIAN_POINT('Ctrl Pts',(13.4093619770594,-11.8343501113003,52.847199104853));
#202=CARTESIAN_POINT('Ctrl Pts',(14.1497246662928,-10.9442711611253,53.0416843428615));
#203=CARTESIAN_POINT('Ctrl Pts',(15.4573981150636,-9.00336731087651,53.4053997853113));
#204=CARTESIAN_POINT('Ctrl Pts',(16.0248058336583,-7.95254556554508,53.5742981434725));
#205=CARTESIAN_POINT('Ctrl Pts',(16.9383132494719,-5.75594743373741,53.8545956406889));
#206=CARTESIAN_POINT('Ctrl Pts',(17.2851384355142,-4.6082682417815,53.9660032391988));
#207=CARTESIAN_POINT('Ctrl Pts',(17.7410443099581,-2.29510211484737,54.1137519313197));
#208=CARTESIAN_POINT('Ctrl Pts',(17.85,-1.12958460467862,54.15));
#209=CARTESIAN_POINT('Ctrl Pts',(17.85,1.12958460467862,54.15));
#210=CARTESIAN_POINT('Ctrl Pts',(17.7410443099581,2.29510211484737,54.1137519313197));
#211=CARTESIAN_POINT('Ctrl Pts',(17.2851384355142,4.6082682417815,53.9660032391988));
#212=CARTESIAN_POINT('Ctrl Pts',(16.9383132494719,5.7559474337374,53.8545956406889));
#213=CARTESIAN_POINT('Ctrl Pts',(16.0248058336583,7.95254556554507,53.5742981434725));
#214=CARTESIAN_POINT('Ctrl Pts',(15.4573981150636,9.0033673108765,53.4053997853113));
#215=CARTESIAN_POINT('Ctrl Pts',(14.1497246662928,10.9442711611253,53.0416843428615));
#216=CARTESIAN_POINT('Ctrl Pts',(13.4093619770594,11.8343501113003,52.847199104853));
#217=CARTESIAN_POINT('Ctrl Pts',(11.8340014980288,13.409710590331,52.4695963240855));
#218=CARTESIAN_POINT('Ctrl Pts',(10.9437576400903,14.150115124066,52.2729248231974));
#219=CARTESIAN_POINT('Ctrl Pts',(9.00294732430289,15.4576365815845,51.9013092221583));
#220=CARTESIAN_POINT('Ctrl Pts',(7.95238417182094,16.0248659003981,51.7267434235685));
#221=CARTESIAN_POINT('Ctrl Pts',(5.75630098515194,16.9381732687549,51.4349163572503));
#222=CARTESIAN_POINT('Ctrl Pts',(4.60887036562314,17.2849758315347,51.3177373003769));
#223=CARTESIAN_POINT('Ctrl Pts',(2.29578035089514,17.7409545413032,51.1618909264913));
#224=CARTESIAN_POINT('Ctrl Pts',(1.13008464939968,17.85,51.1233801699379));
#225=CARTESIAN_POINT('Ctrl Pts',(-1.13008464939968,17.85,51.1233801699379));
#226=CARTESIAN_POINT('Ctrl Pts',(-2.29578035089514,17.7409545413032,51.1618909264913));
#227=CARTESIAN_POINT('Ctrl Pts',(-4.60887036562314,17.2849758315347,51.3177373003769));
#228=CARTESIAN_POINT('Ctrl Pts',(-5.75630098515194,16.9381732687549,51.4349163572503));
#229=CARTESIAN_POINT('Ctrl Pts',(-7.95238417182094,16.0248659003981,51.7267434235685));
#230=CARTESIAN_POINT('Ctrl Pts',(-9.00294732430289,15.4576365815845,51.9013092221583));
#231=CARTESIAN_POINT('Ctrl Pts',(-10.9437576400903,14.150115124066,52.2729248231974));
#232=CARTESIAN_POINT('Ctrl Pts',(-11.8340014980288,13.409710590331,52.4695963240855));
#233=CARTESIAN_POINT('Ctrl Pts',(-13.4093619770594,11.8343501113003,52.847199104853));
#234=CARTESIAN_POINT('Ctrl Pts',(-14.1497246662928,10.9442711611253,53.0416843428615));
#235=CARTESIAN_POINT('Ctrl Pts',(-15.4573981150636,9.00336731087651,53.4053997853113));
#236=CARTESIAN_POINT('Ctrl Pts',(-16.0248058336583,7.95254556554507,53.5742981434725));
#237=CARTESIAN_POINT('Ctrl Pts',(-16.9383132494719,5.75594743373741,53.8545956406889));
#238=CARTESIAN_POINT('Ctrl Pts',(-17.2851384355142,4.60826824178151,53.9660032391988));
#239=CARTESIAN_POINT('Ctrl Pts',(-17.7410443099581,2.29510211484737,54.1137519313197));
#240=CARTESIAN_POINT('Ctrl Pts',(-17.85,1.12958460467862,54.15));
#241=CARTESIAN_POINT('Ctrl Pts',(-17.85,8.32667268468867E-16,54.15));
#242=CARTESIAN_POINT('Ctrl Pts',(-17.85,1.94289029309402E-15,54.15));
#243=CARTESIAN_POINT('Ctrl Pts',(-17.85,-1.12958460467862,54.15));
#244=CARTESIAN_POINT('Ctrl Pts',(-17.7410443099581,-2.29510211484737,54.1137519313197));
#245=CARTESIAN_POINT('Ctrl Pts',(-17.2851384355142,-4.60826824178151,53.9660032391988));
#246=CARTESIAN_POINT('Ctrl Pts',(-16.9383132494719,-5.75594743373741,53.8545956406889));
#247=CARTESIAN_POINT('Ctrl Pts',(-16.0248058336583,-7.95254556554508,53.5742981434725));
#248=CARTESIAN_POINT('Ctrl Pts',(-15.4573981150636,-9.00336731087652,53.4053997853113));
#249=CARTESIAN_POINT('Ctrl Pts',(-14.1497246662928,-10.9442711611253,53.0416843428615));
#250=CARTESIAN_POINT('Ctrl Pts',(-13.4093619770594,-11.8343501113003,52.847199104853));
#251=CARTESIAN_POINT('Ctrl Pts',(-11.8340014980288,-13.409710590331,52.4695963240855));
#252=CARTESIAN_POINT('Ctrl Pts',(-10.9437576400903,-14.150115124066,52.2729248231974));
#253=CARTESIAN_POINT('Ctrl Pts',(-9.00294732430291,-15.4576365815845,51.9013092221583));
#254=CARTESIAN_POINT('Ctrl Pts',(-7.95238417182095,-16.0248659003981,51.7267434235685));
#255=CARTESIAN_POINT('Ctrl Pts',(-5.75630098515195,-16.9381732687549,51.4349163572503));
#256=CARTESIAN_POINT('Ctrl Pts',(-4.60887036562315,-17.2849758315347,51.3177373003769));
#257=CARTESIAN_POINT('Ctrl Pts',(-2.29578035089515,-17.7409545413032,51.1618909264913));
#258=CARTESIAN_POINT('Ctrl Pts',(-1.13008464939969,-17.85,51.1233801699379));
#259=CARTESIAN_POINT('Ctrl Pts',(-5.55111512312578E-16,-17.85,51.1233801699379));
#260=CARTESIAN_POINT('',(-17.85,2.18599453647803E-15,61.9));
#261=CARTESIAN_POINT('',(-17.85,-2.18599453647803E-15,0.));
#262=CARTESIAN_POINT('Origin',(0.,0.,61.9));
#263=CARTESIAN_POINT('Origin',(0.,0.,0.));
#264=CARTESIAN_POINT('',(-120.,-54.15,-6.63146241738292E-15));
#265=CARTESIAN_POINT('Origin',(-120.,0.,0.));
#266=CARTESIAN_POINT('',(120.,-54.15,6.63146241738292E-15));
#267=CARTESIAN_POINT('',(0.,-54.15,-6.63146241738292E-15));
#268=CARTESIAN_POINT('Origin',(120.,0.,0.));
#269=CARTESIAN_POINT('Origin',(0.,0.,0.));
#270=CARTESIAN_POINT('',(-19.05,-2.33295215237571E-15,61.9));
#271=CARTESIAN_POINT('Origin',(0.,0.,61.9));
#272=CARTESIAN_POINT('',(-19.05,-2.41547697889115E-15,57.15));
#273=CARTESIAN_POINT('',(-19.05,-2.33295215237571E-15,0.));
#274=CARTESIAN_POINT('',(-2.77555756156289E-16,-19.05,53.8815367264149));
#275=CARTESIAN_POINT('Ctrl Pts',(-2.77555756156289E-16,-19.05,53.8815367264149));
#276=CARTESIAN_POINT('Ctrl Pts',(-1.2063037253852,-19.05,53.8815367264149));
#277=CARTESIAN_POINT('Ctrl Pts',(-2.45053789498569,-18.9335763627586,53.9231722800508));
#278=CARTESIAN_POINT('Ctrl Pts',(-4.91931959836657,-18.446835627048,54.0916174455804));
#279=CARTESIAN_POINT('Ctrl Pts',(-6.14390646540862,-18.0766589448737,54.2182562510536));
#280=CARTESIAN_POINT('Ctrl Pts',(-8.48754420726564,-17.1018949084792,54.5335683257661));
#281=CARTESIAN_POINT('Ctrl Pts',(-9.60863806369229,-16.496534336871,54.7221515801533));
#282=CARTESIAN_POINT('Ctrl Pts',(-11.6797033692942,-15.101195313099,55.1235287216566));
#283=CARTESIAN_POINT('Ctrl Pts',(-12.6296724504084,-14.311095912799,55.3359142532007));
#284=CARTESIAN_POINT('Ctrl Pts',(-14.3107059900494,-12.6300623731581,55.7436247734445));
#285=CARTESIAN_POINT('Ctrl Pts',(-15.1007584502198,-11.6802778751637,55.9535931557416));
#286=CARTESIAN_POINT('Ctrl Pts',(-16.4962672768117,-9.60910833499545,56.3462378093791));
#287=CARTESIAN_POINT('Ctrl Pts',(-17.1018273619652,-8.48772546685576,56.5285568309544));
#288=CARTESIAN_POINT('Ctrl Pts',(-18.0768152648538,-6.14351176499014,56.8311224958037));
#289=CARTESIAN_POINT('Ctrl Pts',(-18.4470174051388,-4.91864662717153,56.9513792720176));
#290=CARTESIAN_POINT('Ctrl Pts',(-18.93367679794,-2.44977931707955,57.1108682032277));
#291=CARTESIAN_POINT('Ctrl Pts',(-19.05,-1.20574424078652,57.15));
#292=CARTESIAN_POINT('Ctrl Pts',(-19.05,-1.94289029309402E-15,57.15));
#293=CARTESIAN_POINT('Ctrl Pts',(-19.05,-2.4980018054066E-15,57.15));
#294=CARTESIAN_POINT('Ctrl Pts',(-19.05,1.20574424078652,57.15));
#295=CARTESIAN_POINT('Ctrl Pts',(-18.93367679794,2.44977931707954,57.1108682032277));
#296=CARTESIAN_POINT('Ctrl Pts',(-18.4470174051388,4.91864662717152,56.9513792720176));
#297=CARTESIAN_POINT('Ctrl Pts',(-18.0768152648538,6.14351176499014,56.8311224958037));
#298=CARTESIAN_POINT('Ctrl Pts',(-17.1018273619652,8.48772546685575,56.5285568309544));
#299=CARTESIAN_POINT('Ctrl Pts',(-16.4962672768117,9.60910833499545,56.3462378093791));
#300=CARTESIAN_POINT('Ctrl Pts',(-15.1007584502198,11.6802778751637,55.9535931557416));
#301=CARTESIAN_POINT('Ctrl Pts',(-14.3107059900494,12.6300623731581,55.7436247734445));
#302=CARTESIAN_POINT('Ctrl Pts',(-12.6296724504084,14.311095912799,55.3359142532007));
#303=CARTESIAN_POINT('Ctrl Pts',(-11.6797033692942,15.101195313099,55.1235287216566));
#304=CARTESIAN_POINT('Ctrl Pts',(-9.60863806369229,16.496534336871,54.7221515801533));
#305=CARTESIAN_POINT('Ctrl Pts',(-8.48754420726564,17.1018949084792,54.5335683257661));
#306=CARTESIAN_POINT('Ctrl Pts',(-6.14390646540863,18.0766589448737,54.2182562510536));
#307=CARTESIAN_POINT('Ctrl Pts',(-4.91931959836657,18.446835627048,54.0916174455804));
#308=CARTESIAN_POINT('Ctrl Pts',(-2.4505378949857,18.9335763627586,53.9231722800508));
#309=CARTESIAN_POINT('Ctrl Pts',(-1.20630372538521,19.05,53.8815367264149));
#310=CARTESIAN_POINT('Ctrl Pts',(1.20630372538521,19.05,53.8815367264149));
#311=CARTESIAN_POINT('Ctrl Pts',(2.4505378949857,18.9335763627586,53.9231722800508));
#312=CARTESIAN_POINT('Ctrl Pts',(4.91931959836657,18.446835627048,54.0916174455804));
#313=CARTESIAN_POINT('Ctrl Pts',(6.14390646540862,18.0766589448737,54.2182562510536));
#314=CARTESIAN_POINT('Ctrl Pts',(8.48754420726564,17.1018949084792,54.5335683257661));
#315=CARTESIAN_POINT('Ctrl Pts',(9.60863806369229,16.496534336871,54.7221515801533));
#316=CARTESIAN_POINT('Ctrl Pts',(11.6797033692942,15.101195313099,55.1235287216566));
#317=CARTESIAN_POINT('Ctrl Pts',(12.6296724504084,14.3110959127991,55.3359142532007));
#318=CARTESIAN_POINT('Ctrl Pts',(14.3107059900494,12.6300623731581,55.7436247734445));
#319=CARTESIAN_POINT('Ctrl Pts',(15.1007584502198,11.6802778751637,55.9535931557416));
#320=CARTESIAN_POINT('Ctrl Pts',(16.4962672768117,9.60910833499545,56.3462378093791));
#321=CARTESIAN_POINT('Ctrl Pts',(17.1018273619652,8.48772546685575,56.5285568309544));
#322=CARTESIAN_POINT('Ctrl Pts',(18.0768152648538,6.14351176499014,56.8311224958037));
#323=CARTESIAN_POINT('Ctrl Pts',(18.4470174051388,4.91864662717152,56.9513792720176));
#324=CARTESIAN_POINT('Ctrl Pts',(18.93367679794,2.44977931707955,57.1108682032277));
#325=CARTESIAN_POINT('Ctrl Pts',(19.05,1.20574424078652,57.15));
#326=CARTESIAN_POINT('Ctrl Pts',(19.05,-1.20574424078652,57.15));
#327=CARTESIAN_POINT('Ctrl Pts',(18.93367679794,-2.44977931707954,57.1108682032277));
#328=CARTESIAN_POINT('Ctrl Pts',(18.4470174051388,-4.91864662717152,56.9513792720176));
#329=CARTESIAN_POINT('Ctrl Pts',(18.0768152648538,-6.14351176499013,56.8311224958037));
#330=CARTESIAN_POINT('Ctrl Pts',(17.1018273619652,-8.48772546685575,56.5285568309544));
#331=CARTESIAN_POINT('Ctrl Pts',(16.4962672768117,-9.60910833499545,56.3462378093791));
#332=CARTESIAN_POINT('Ctrl Pts',(15.1007584502198,-11.6802778751637,55.9535931557416));
#333=CARTESIAN_POINT('Ctrl Pts',(14.3107059900494,-12.6300623731581,55.7436247734445));
#334=CARTESIAN_POINT('Ctrl Pts',(12.6296724504084,-14.311095912799,55.3359142532007));
#335=CARTESIAN_POINT('Ctrl Pts',(11.6797033692942,-15.101195313099,55.1235287216566));
#336=CARTESIAN_POINT('Ctrl Pts',(9.6086380636923,-16.496534336871,54.7221515801533));
#337=CARTESIAN_POINT('Ctrl Pts',(8.48754420726565,-17.1018949084792,54.5335683257661));
#338=CARTESIAN_POINT('Ctrl Pts',(6.14390646540862,-18.0766589448737,54.2182562510536));
#339=CARTESIAN_POINT('Ctrl Pts',(4.91931959836657,-18.446835627048,54.0916174455804));
#340=CARTESIAN_POINT('Ctrl Pts',(2.45053789498569,-18.9335763627586,53.9231722800508));
#341=CARTESIAN_POINT('Ctrl Pts',(1.2063037253852,-19.05,53.8815367264149));
#342=CARTESIAN_POINT('Ctrl Pts',(-2.77555756156289E-16,-19.05,53.8815367264149));
#343=CARTESIAN_POINT('Origin',(0.,0.,61.9));
#344=CARTESIAN_POINT('Origin',(-120.,0.,0.));
#345=CARTESIAN_POINT('',(-120.,-57.15,-6.99885645712712E-15));
#346=CARTESIAN_POINT('Origin',(-120.,0.,0.));
#347=CARTESIAN_POINT('Origin',(0.,0.,0.));
#348=CARTESIAN_POINT('',(120.,-57.15,-6.99885645712712E-15));
#349=CARTESIAN_POINT('Origin',(120.,0.,0.));
#350=CARTESIAN_POINT('',(0.,-57.15,-6.99885645712712E-15));
#351=CARTESIAN_POINT('Origin',(120.,0.,0.));
#352=UNCERTAINTY_MEASURE_WITH_UNIT(LENGTH_MEASURE(0.01),#356,
'DISTANCE_ACCURACY_VALUE',
'Maximum model space distance between geometric entities at asserted c
onnectivities');
#353=UNCERTAINTY_MEASURE_WITH_UNIT(LENGTH_MEASURE(0.01),#356,
'DISTANCE_ACCURACY_VALUE',
'Maximum model space distance between geometric entities at asserted c
onnectivities');
#354=(
GEOMETRIC_REPRESENTATION_CONTEXT(3)
GLOBAL_UNCERTAINTY_ASSIGNED_CONTEXT((#352))
GLOBAL_UNIT_ASSIGNED_CONTEXT((#356,#358,#359))
REPRESENTATION_CONTEXT('','3D')
);
#355=(
GEOMETRIC_REPRESENTATION_CONTEXT(3)
GLOBAL_UNCERTAINTY_ASSIGNED_CONTEXT((#353))
GLOBAL_UNIT_ASSIGNED_CONTEXT((#356,#358,#359))
REPRESENTATION_CONTEXT('','3D')
);
#356=(
LENGTH_UNIT()
NAMED_UNIT(*)
SI_UNIT(.MILLI.,.METRE.)
);
#357=(
LENGTH_UNIT()
NAMED_UNIT(*)
SI_UNIT(.CENTI.,.METRE.)
);
#358=(
NAMED_UNIT(*)
PLANE_ANGLE_UNIT()
SI_UNIT($,.RADIAN.)
);
#359=(
NAMED_UNIT(*)
SI_UNIT($,.STERADIAN.)
SOLID_ANGLE_UNIT()
);
#360=SHAPE_DEFINITION_REPRESENTATION(#361,#362);
#361=PRODUCT_DEFINITION_SHAPE('',$,#364);
#362=SHAPE_REPRESENTATION('',(#142),#354);
#363=PRODUCT_DEFINITION_CONTEXT('part definition',#368,'design');
#364=PRODUCT_DEFINITION('T-8 45\X\D715','T-8 45\X\D715',#365,#363);
#365=PRODUCT_DEFINITION_FORMATION('',$,#370);
#366=PRODUCT_RELATED_PRODUCT_CATEGORY('T-8 45\X\D715','T-8 45\X\D715',(#370));
#367=APPLICATION_PROTOCOL_DEFINITION('international standard',
'automotive_design',2009,#368);
#368=APPLICATION_CONTEXT(
'Core Data for Automotive Mechanical Design Process');
#369=PRODUCT_CONTEXT('part definition',#368,'mechanical');
#370=PRODUCT('T-8 45\X\D715','T-8 45\X\D715',$,(#369));
#371=PRESENTATION_STYLE_ASSIGNMENT((#372));
#372=SURFACE_STYLE_USAGE(.BOTH.,#375);
#373=SURFACE_STYLE_RENDERING_WITH_PROPERTIES($,#379,(#374));
#374=SURFACE_STYLE_TRANSPARENT(0.);
#375=SURFACE_SIDE_STYLE('',(#376,#373));
#376=SURFACE_STYLE_FILL_AREA(#377);
#377=FILL_AREA_STYLE('',(#378));
#378=FILL_AREA_STYLE_COLOUR('',#379);
#379=COLOUR_RGB('',0.749019607843137,0.749019607843137,0.749019607843137);
ENDSEC;
END-ISO-10303-21;
