ISO-10303-21;
HEADER;
/* Generated by software containing ST-Developer
 * from STEP Tools, Inc. (www.steptools.com) 
 */

FILE_DESCRIPTION(
/* description */ (''),
/* implementation_level */ '2;1');

FILE_NAME(
/* name */ 
'\\\\Tske00\\w\\Work\\TOSTE\\\X2\7D99624B\X0\\\02_\X2\6EB663A5\X0\\\\X2\6EB663A5752830C130FC30BA\X0\\\
T-8\\T-8 40\X\D725.stp',
/* time_stamp */ '2022-04-28T09:40:38+09:00',
/* author */ ('3dcad-eng'),
/* organization */ (''),
/* preprocessor_version */ 'ST-DEVELOPER v18.1',
/* originating_system */ 'Autodesk Inventor 2022',
/* authorisation */ '');

FILE_SCHEMA (('AUTOMOTIVE_DESIGN { 1 0 10303 214 3 1 1 }'));
ENDSEC;

DATA;
#10=MECHANICAL_DESIGN_GEOMETRIC_PRESENTATION_REPRESENTATION('',(#13),#355);
#11=SHAPE_REPRESENTATION_RELATIONSHIP('SRR','None',#362,#12);
#12=ADVANCED_BREP_SHAPE_REPRESENTATION('',(#14),#354);
#13=STYLED_ITEM('',(#371),#14);
#14=MANIFOLD_SOLID_BREP('\X2\30BD30EA30C330C9\X0\1',#123);
#15=PLANE('',#150);
#16=PLANE('',#151);
#17=PLANE('',#155);
#18=FACE_BOUND('',#32,.T.);
#19=FACE_BOUND('',#35,.T.);
#20=FACE_BOUND('',#37,.T.);
#21=FACE_BOUND('',#39,.T.);
#22=FACE_BOUND('',#41,.T.);
#23=FACE_OUTER_BOUND('',#30,.T.);
#24=FACE_OUTER_BOUND('',#31,.T.);
#25=FACE_OUTER_BOUND('',#33,.T.);
#26=FACE_OUTER_BOUND('',#34,.T.);
#27=FACE_OUTER_BOUND('',#36,.T.);
#28=FACE_OUTER_BOUND('',#38,.T.);
#29=FACE_OUTER_BOUND('',#40,.T.);
#30=EDGE_LOOP('',(#84,#85,#86,#87,#88));
#31=EDGE_LOOP('',(#89,#90,#91,#92));
#32=EDGE_LOOP('',(#93,#94));
#33=EDGE_LOOP('',(#95,#96,#97,#98,#99));
#34=EDGE_LOOP('',(#100));
#35=EDGE_LOOP('',(#101));
#36=EDGE_LOOP('',(#102));
#37=EDGE_LOOP('',(#103));
#38=EDGE_LOOP('',(#104,#105,#106,#107));
#39=EDGE_LOOP('',(#108,#109));
#40=EDGE_LOOP('',(#110));
#41=EDGE_LOOP('',(#111));
#42=CIRCLE('',#144,29.75);
#43=CIRCLE('',#146,48.8);
#44=CIRCLE('',#147,48.8);
#45=CIRCLE('',#149,31.75);
#46=CIRCLE('',#152,50.8);
#47=CIRCLE('',#154,50.8);
#48=LINE('',#261,#52);
#49=LINE('',#267,#53);
#50=LINE('',#273,#54);
#51=LINE('',#350,#55);
#52=VECTOR('',#160,29.75);
#53=VECTOR('',#167,48.8);
#54=VECTOR('',#174,31.75);
#55=VECTOR('',#185,50.8);
#56=B_SPLINE_CURVE_WITH_KNOTS('',3,(#192,#193,#194,#195,#196,#197,#198,
#199,#200,#201,#202,#203,#204,#205,#206,#207,#208,#209,#210,#211,#212,#213,
#214,#215,#216,#217,#218,#219,#220,#221,#222,#223,#224,#225,#226,#227,#228,
#229,#230,#231,#232,#233,#234,#235,#236,#237,#238,#239,#240,#241),
 .UNSPECIFIED.,.F.,.F.,(4,2,2,2,2,2,2,2,2,2,2,2,2,2,2,2,2,2,2,2,2,2,2,2,
4),(0.,0.580807265830378,1.16161453166076,1.74242179749113,2.32322906332151,
2.89998257757372,3.47673609182592,4.05348960607813,4.63024312033034,5.20699663458254,
5.78375014883475,6.36050366308696,6.93725717733916,7.51806444316954,8.09887170899992,
8.6796789748303,9.26048624066068,9.84129350649105,10.4221007723214,11.0029080381518,
11.5837153039822,12.1604688182344,12.7372223324866,13.3139758467388,13.890729360991),
 .UNSPECIFIED.);
#57=B_SPLINE_CURVE_WITH_KNOTS('',3,(#242,#243,#244,#245,#246,#247,#248,
#249,#250,#251,#252,#253,#254,#255,#256,#257,#258,#259),.UNSPECIFIED.,.F.,
 .F.,(4,2,2,2,2,2,2,2,4),(13.890729360991,14.4674828752432,15.0442363894954,
15.6209899037476,16.1977434179998,16.7785506838302,17.3593579496606,17.940165215491,
18.5209724813214),.UNSPECIFIED.);
#58=B_SPLINE_CURVE_WITH_KNOTS('',3,(#275,#276,#277,#278,#279,#280,#281,
#282,#283,#284,#285,#286,#287,#288,#289,#290,#291,#292),.UNSPECIFIED.,.F.,
 .F.,(4,2,2,2,2,2,2,2,4),(0.,0.621436205811966,1.24287241162393,1.8643086174359,
2.48574482324786,3.10227007907221,3.71879533489656,4.33532059072091,4.95184584654526),
 .UNSPECIFIED.);
#59=B_SPLINE_CURVE_WITH_KNOTS('',3,(#293,#294,#295,#296,#297,#298,#299,
#300,#301,#302,#303,#304,#305,#306,#307,#308,#309,#310,#311,#312,#313,#314,
#315,#316,#317,#318,#319,#320,#321,#322,#323,#324,#325,#326,#327,#328,#329,
#330,#331,#332,#333,#334,#335,#336,#337,#338,#339,#340,#341,#342),
 .UNSPECIFIED.,.F.,.F.,(4,2,2,2,2,2,2,2,2,2,2,2,2,2,2,2,2,2,2,2,2,2,2,2,
4),(4.95184584654526,5.56837110236961,6.18489635819396,6.8014216140183,
7.41794686984265,8.03938307565462,8.66081928146659,9.28225548727855,9.90369169309052,
10.5251278989025,11.1465641047144,11.7680003105264,12.3894365163384,13.0059617721627,
13.6224870279871,14.2390122838114,14.8555375396358,15.4720627954601,16.0885880512845,
16.7051133071088,17.3216385629332,17.9430747687451,18.5645109745571,19.1859471803691,
19.807383386181),.UNSPECIFIED.);
#60=VERTEX_POINT('',#190);
#61=VERTEX_POINT('',#191);
#62=VERTEX_POINT('',#260);
#63=VERTEX_POINT('',#264);
#64=VERTEX_POINT('',#266);
#65=VERTEX_POINT('',#270);
#66=VERTEX_POINT('',#272);
#67=VERTEX_POINT('',#274);
#68=VERTEX_POINT('',#345);
#69=VERTEX_POINT('',#348);
#70=EDGE_CURVE('',#60,#61,#56,.T.);
#71=EDGE_CURVE('',#61,#60,#57,.T.);
#72=EDGE_CURVE('',#61,#62,#48,.T.);
#73=EDGE_CURVE('',#62,#62,#42,.T.);
#74=EDGE_CURVE('',#63,#63,#43,.T.);
#75=EDGE_CURVE('',#63,#64,#49,.T.);
#76=EDGE_CURVE('',#64,#64,#44,.T.);
#77=EDGE_CURVE('',#65,#65,#45,.T.);
#78=EDGE_CURVE('',#65,#66,#50,.T.);
#79=EDGE_CURVE('',#67,#66,#58,.T.);
#80=EDGE_CURVE('',#66,#67,#59,.T.);
#81=EDGE_CURVE('',#68,#68,#46,.T.);
#82=EDGE_CURVE('',#69,#69,#47,.T.);
#83=EDGE_CURVE('',#69,#68,#51,.T.);
#84=ORIENTED_EDGE('',*,*,#70,.F.);
#85=ORIENTED_EDGE('',*,*,#71,.F.);
#86=ORIENTED_EDGE('',*,*,#72,.T.);
#87=ORIENTED_EDGE('',*,*,#73,.F.);
#88=ORIENTED_EDGE('',*,*,#72,.F.);
#89=ORIENTED_EDGE('',*,*,#74,.F.);
#90=ORIENTED_EDGE('',*,*,#75,.T.);
#91=ORIENTED_EDGE('',*,*,#76,.F.);
#92=ORIENTED_EDGE('',*,*,#75,.F.);
#93=ORIENTED_EDGE('',*,*,#70,.T.);
#94=ORIENTED_EDGE('',*,*,#71,.T.);
#95=ORIENTED_EDGE('',*,*,#77,.F.);
#96=ORIENTED_EDGE('',*,*,#78,.T.);
#97=ORIENTED_EDGE('',*,*,#79,.F.);
#98=ORIENTED_EDGE('',*,*,#80,.F.);
#99=ORIENTED_EDGE('',*,*,#78,.F.);
#100=ORIENTED_EDGE('',*,*,#77,.T.);
#101=ORIENTED_EDGE('',*,*,#73,.T.);
#102=ORIENTED_EDGE('',*,*,#81,.T.);
#103=ORIENTED_EDGE('',*,*,#74,.T.);
#104=ORIENTED_EDGE('',*,*,#82,.F.);
#105=ORIENTED_EDGE('',*,*,#83,.T.);
#106=ORIENTED_EDGE('',*,*,#81,.F.);
#107=ORIENTED_EDGE('',*,*,#83,.F.);
#108=ORIENTED_EDGE('',*,*,#79,.T.);
#109=ORIENTED_EDGE('',*,*,#80,.T.);
#110=ORIENTED_EDGE('',*,*,#82,.T.);
#111=ORIENTED_EDGE('',*,*,#76,.T.);
#112=CYLINDRICAL_SURFACE('',#143,29.75);
#113=CYLINDRICAL_SURFACE('',#145,48.8);
#114=CYLINDRICAL_SURFACE('',#148,31.75);
#115=CYLINDRICAL_SURFACE('',#153,50.8);
#116=ADVANCED_FACE('',(#23),#112,.F.);
#117=ADVANCED_FACE('',(#24,#18),#113,.F.);
#118=ADVANCED_FACE('',(#25),#114,.T.);
#119=ADVANCED_FACE('',(#26,#19),#15,.T.);
#120=ADVANCED_FACE('',(#27,#20),#16,.F.);
#121=ADVANCED_FACE('',(#28,#21),#115,.T.);
#122=ADVANCED_FACE('',(#29,#22),#17,.T.);
#123=CLOSED_SHELL('',(#116,#117,#118,#119,#120,#121,#122));
#124=DERIVED_UNIT_ELEMENT(#126,1.);
#125=DERIVED_UNIT_ELEMENT(#357,-3.);
#126=(
MASS_UNIT()
NAMED_UNIT(*)
SI_UNIT($,.GRAM.)
);
#127=DERIVED_UNIT((#124,#125));
#128=MEASURE_REPRESENTATION_ITEM('density measure',
POSITIVE_RATIO_MEASURE(1.),#127);
#129=PROPERTY_DEFINITION_REPRESENTATION(#134,#131);
#130=PROPERTY_DEFINITION_REPRESENTATION(#135,#132);
#131=REPRESENTATION('material name',(#133),#354);
#132=REPRESENTATION('density',(#128),#354);
#133=DESCRIPTIVE_REPRESENTATION_ITEM('\X2\4E00822C\X0\','\X2\4E00822C\X0\');
#134=PROPERTY_DEFINITION('material property','material name',#364);
#135=PROPERTY_DEFINITION('material property','density of part',#364);
#136=DATE_TIME_ROLE('creation_date');
#137=APPLIED_DATE_AND_TIME_ASSIGNMENT(#138,#136,(#364));
#138=DATE_AND_TIME(#139,#140);
#139=CALENDAR_DATE(2022,31,3);
#140=LOCAL_TIME(0,0,0.,#141);
#141=COORDINATED_UNIVERSAL_TIME_OFFSET(0,0,.BEHIND.);
#142=AXIS2_PLACEMENT_3D('placement',#188,#156,#157);
#143=AXIS2_PLACEMENT_3D('',#189,#158,#159);
#144=AXIS2_PLACEMENT_3D('',#262,#161,#162);
#145=AXIS2_PLACEMENT_3D('',#263,#163,#164);
#146=AXIS2_PLACEMENT_3D('',#265,#165,#166);
#147=AXIS2_PLACEMENT_3D('',#268,#168,#169);
#148=AXIS2_PLACEMENT_3D('',#269,#170,#171);
#149=AXIS2_PLACEMENT_3D('',#271,#172,#173);
#150=AXIS2_PLACEMENT_3D('',#343,#175,#176);
#151=AXIS2_PLACEMENT_3D('',#344,#177,#178);
#152=AXIS2_PLACEMENT_3D('',#346,#179,#180);
#153=AXIS2_PLACEMENT_3D('',#347,#181,#182);
#154=AXIS2_PLACEMENT_3D('',#349,#183,#184);
#155=AXIS2_PLACEMENT_3D('',#351,#186,#187);
#156=DIRECTION('axis',(0.,0.,1.));
#157=DIRECTION('refdir',(1.,0.,0.));
#158=DIRECTION('center_axis',(0.,0.,1.));
#159=DIRECTION('ref_axis',(1.,0.,0.));
#160=DIRECTION('',(0.,0.,1.));
#161=DIRECTION('center_axis',(0.,0.,-1.));
#162=DIRECTION('ref_axis',(1.,0.,0.));
#163=DIRECTION('center_axis',(1.,0.,0.));
#164=DIRECTION('ref_axis',(0.,1.,0.));
#165=DIRECTION('center_axis',(1.,0.,0.));
#166=DIRECTION('ref_axis',(0.,1.,0.));
#167=DIRECTION('',(1.,0.,0.));
#168=DIRECTION('center_axis',(-1.,0.,0.));
#169=DIRECTION('ref_axis',(0.,1.,0.));
#170=DIRECTION('center_axis',(0.,0.,1.));
#171=DIRECTION('ref_axis',(1.,0.,0.));
#172=DIRECTION('center_axis',(0.,0.,1.));
#173=DIRECTION('ref_axis',(1.,0.,0.));
#174=DIRECTION('',(0.,0.,-1.));
#175=DIRECTION('center_axis',(0.,0.,1.));
#176=DIRECTION('ref_axis',(1.,0.,0.));
#177=DIRECTION('center_axis',(1.,0.,0.));
#178=DIRECTION('ref_axis',(0.,0.,-1.));
#179=DIRECTION('center_axis',(-1.,0.,0.));
#180=DIRECTION('ref_axis',(0.,1.,0.));
#181=DIRECTION('center_axis',(1.,0.,0.));
#182=DIRECTION('ref_axis',(0.,1.,0.));
#183=DIRECTION('center_axis',(1.,0.,0.));
#184=DIRECTION('ref_axis',(0.,1.,0.));
#185=DIRECTION('',(-1.,0.,0.));
#186=DIRECTION('center_axis',(1.,0.,0.));
#187=DIRECTION('ref_axis',(0.,0.,-1.));
#188=CARTESIAN_POINT('',(0.,0.,0.));
#189=CARTESIAN_POINT('Origin',(0.,0.,0.));
#190=CARTESIAN_POINT('',(0.,-29.75,38.6830389188854));
#191=CARTESIAN_POINT('',(-29.75,-1.56327576793953E-16,48.8));
#192=CARTESIAN_POINT('Ctrl Pts',(0.,-29.75,38.6830389188854));
#193=CARTESIAN_POINT('Ctrl Pts',(1.93602421943459,-29.75,38.6830389188854));
#194=CARTESIAN_POINT('Ctrl Pts',(3.91199326329735,-29.558234065691,38.8328174332226));
#195=CARTESIAN_POINT('Ctrl Pts',(7.79947051855763,-28.777789248264,39.4146642126023));
#196=CARTESIAN_POINT('Ctrl Pts',(9.71128064872593,-28.1895292760094,39.8452761450525));
#197=CARTESIAN_POINT('Ctrl Pts',(13.3504337218713,-26.6594208533559,40.8848462983073));
#198=CARTESIAN_POINT('Ctrl Pts',(15.0815778099672,-25.7163192243264,41.4931350294088));
#199=CARTESIAN_POINT('Ctrl Pts',(18.2760471290262,-23.5535382793182,42.757925151283));
#200=CARTESIAN_POINT('Ctrl Pts',(19.7394563286767,-22.3333971519229,43.4134245272599));
#201=CARTESIAN_POINT('Ctrl Pts',(22.3243449307089,-19.7485085498906,44.6483339899805));
#202=CARTESIAN_POINT('Ctrl Pts',(23.542969088574,-18.2898082980892,45.2748739228992));
#203=CARTESIAN_POINT('Ctrl Pts',(25.7090340915655,-15.0941726320445,46.4381012619484));
#204=CARTESIAN_POINT('Ctrl Pts',(26.6566265095019,-13.3570692063212,46.9740447282057));
#205=CARTESIAN_POINT('Ctrl Pts',(28.1923054525064,-9.70468837255881,47.8622106669383));
#206=CARTESIAN_POINT('Ctrl Pts',(28.7816367738073,-7.78566922501168,48.2147633365948));
#207=CARTESIAN_POINT('Ctrl Pts',(29.5606349087858,-3.89462764255539,48.6837952960572));
#208=CARTESIAN_POINT('Ctrl Pts',(29.75,-1.92251171417402,48.8));
#209=CARTESIAN_POINT('Ctrl Pts',(29.75,1.92251171417402,48.8));
#210=CARTESIAN_POINT('Ctrl Pts',(29.5606349087858,3.89462764255538,48.6837952960572));
#211=CARTESIAN_POINT('Ctrl Pts',(28.7816367738073,7.78566922501168,48.2147633365948));
#212=CARTESIAN_POINT('Ctrl Pts',(28.1923054525064,9.7046883725588,47.8622106669383));
#213=CARTESIAN_POINT('Ctrl Pts',(26.6566265095019,13.3570692063212,46.9740447282057));
#214=CARTESIAN_POINT('Ctrl Pts',(25.7090340915655,15.0941726320445,46.4381012619484));
#215=CARTESIAN_POINT('Ctrl Pts',(23.542969088574,18.2898082980892,45.2748739228992));
#216=CARTESIAN_POINT('Ctrl Pts',(22.3243449307089,19.7485085498906,44.6483339899805));
#217=CARTESIAN_POINT('Ctrl Pts',(19.7394563286767,22.3333971519229,43.4134245272599));
#218=CARTESIAN_POINT('Ctrl Pts',(18.2760471290262,23.5535382793182,42.757925151283));
#219=CARTESIAN_POINT('Ctrl Pts',(15.0815778099672,25.7163192243264,41.4931350294088));
#220=CARTESIAN_POINT('Ctrl Pts',(13.3504337218713,26.6594208533559,40.8848462983074));
#221=CARTESIAN_POINT('Ctrl Pts',(9.71128064872594,28.1895292760094,39.8452761450526));
#222=CARTESIAN_POINT('Ctrl Pts',(7.79947051855763,28.777789248264,39.4146642126023));
#223=CARTESIAN_POINT('Ctrl Pts',(3.91199326329735,29.558234065691,38.8328174332226));
#224=CARTESIAN_POINT('Ctrl Pts',(1.93602421943459,29.75,38.6830389188854));
#225=CARTESIAN_POINT('Ctrl Pts',(-1.93602421943459,29.75,38.6830389188854));
#226=CARTESIAN_POINT('Ctrl Pts',(-3.91199326329735,29.558234065691,38.8328174332226));
#227=CARTESIAN_POINT('Ctrl Pts',(-7.79947051855764,28.777789248264,39.4146642126023));
#228=CARTESIAN_POINT('Ctrl Pts',(-9.71128064872594,28.1895292760094,39.8452761450526));
#229=CARTESIAN_POINT('Ctrl Pts',(-13.3504337218713,26.6594208533559,40.8848462983074));
#230=CARTESIAN_POINT('Ctrl Pts',(-15.0815778099672,25.7163192243264,41.4931350294088));
#231=CARTESIAN_POINT('Ctrl Pts',(-18.2760471290262,23.5535382793182,42.757925151283));
#232=CARTESIAN_POINT('Ctrl Pts',(-19.7394563286767,22.3333971519229,43.4134245272599));
#233=CARTESIAN_POINT('Ctrl Pts',(-22.3243449307089,19.7485085498907,44.6483339899805));
#234=CARTESIAN_POINT('Ctrl Pts',(-23.5429690885739,18.2898082980892,45.2748739228992));
#235=CARTESIAN_POINT('Ctrl Pts',(-25.7090340915655,15.0941726320445,46.4381012619484));
#236=CARTESIAN_POINT('Ctrl Pts',(-26.6566265095019,13.3570692063212,46.9740447282057));
#237=CARTESIAN_POINT('Ctrl Pts',(-28.1923054525064,9.70468837255882,47.8622106669383));
#238=CARTESIAN_POINT('Ctrl Pts',(-28.7816367738073,7.7856692250117,48.2147633365948));
#239=CARTESIAN_POINT('Ctrl Pts',(-29.5606349087858,3.89462764255539,48.6837952960572));
#240=CARTESIAN_POINT('Ctrl Pts',(-29.75,1.92251171417403,48.8));
#241=CARTESIAN_POINT('Ctrl Pts',(-29.75,2.77555756156289E-15,48.8));
#242=CARTESIAN_POINT('Ctrl Pts',(-29.75,3.88578058618805E-15,48.8));
#243=CARTESIAN_POINT('Ctrl Pts',(-29.75,-1.92251171417402,48.8));
#244=CARTESIAN_POINT('Ctrl Pts',(-29.5606349087858,-3.89462764255539,48.6837952960572));
#245=CARTESIAN_POINT('Ctrl Pts',(-28.7816367738073,-7.78566922501169,48.2147633365948));
#246=CARTESIAN_POINT('Ctrl Pts',(-28.1923054525064,-9.70468837255881,47.8622106669383));
#247=CARTESIAN_POINT('Ctrl Pts',(-26.6566265095019,-13.3570692063212,46.9740447282057));
#248=CARTESIAN_POINT('Ctrl Pts',(-25.7090340915655,-15.0941726320445,46.4381012619484));
#249=CARTESIAN_POINT('Ctrl Pts',(-23.542969088574,-18.2898082980892,45.2748739228992));
#250=CARTESIAN_POINT('Ctrl Pts',(-22.3243449307089,-19.7485085498906,44.6483339899805));
#251=CARTESIAN_POINT('Ctrl Pts',(-19.7394563286767,-22.3333971519229,43.4134245272599));
#252=CARTESIAN_POINT('Ctrl Pts',(-18.2760471290262,-23.5535382793182,42.757925151283));
#253=CARTESIAN_POINT('Ctrl Pts',(-15.0815778099672,-25.7163192243264,41.4931350294088));
#254=CARTESIAN_POINT('Ctrl Pts',(-13.3504337218713,-26.6594208533559,40.8848462983073));
#255=CARTESIAN_POINT('Ctrl Pts',(-9.71128064872594,-28.1895292760094,39.8452761450525));
#256=CARTESIAN_POINT('Ctrl Pts',(-7.79947051855764,-28.777789248264,39.4146642126023));
#257=CARTESIAN_POINT('Ctrl Pts',(-3.91199326329736,-29.558234065691,38.8328174332226));
#258=CARTESIAN_POINT('Ctrl Pts',(-1.9360242194346,-29.75,38.6830389188854));
#259=CARTESIAN_POINT('Ctrl Pts',(0.,-29.75,38.6830389188854));
#260=CARTESIAN_POINT('',(-29.75,3.64332422746338E-15,55.2));
#261=CARTESIAN_POINT('',(-29.75,-3.64332422746338E-15,0.));
#262=CARTESIAN_POINT('Origin',(0.,0.,55.2));
#263=CARTESIAN_POINT('Origin',(0.,0.,0.));
#264=CARTESIAN_POINT('',(-133.4,-48.8,-5.97627637983908E-15));
#265=CARTESIAN_POINT('Origin',(-133.4,0.,0.));
#266=CARTESIAN_POINT('',(133.4,-48.8,5.97627637983908E-15));
#267=CARTESIAN_POINT('',(0.,-48.8,-5.97627637983908E-15));
#268=CARTESIAN_POINT('Origin',(133.4,0.,0.));
#269=CARTESIAN_POINT('Origin',(0.,0.,0.));
#270=CARTESIAN_POINT('',(-31.75,-3.88825358729285E-15,55.2));
#271=CARTESIAN_POINT('Origin',(0.,0.,55.2));
#272=CARTESIAN_POINT('',(-31.75,-4.44212859905303E-15,50.8));
#273=CARTESIAN_POINT('',(-31.75,-3.88825358729285E-15,0.));
#274=CARTESIAN_POINT('',(0.,-31.75,39.6557372898298));
#275=CARTESIAN_POINT('Ctrl Pts',(-1.11022302462516E-15,-31.75,39.6557372898298));
#276=CARTESIAN_POINT('Ctrl Pts',(-2.07145401937322,-31.75,39.6557372898298));
#277=CARTESIAN_POINT('Ctrl Pts',(-4.1831822522282,-31.5443455685675,39.8230227833115));
#278=CARTESIAN_POINT('Ctrl Pts',(-8.33436368584647,-30.7096586696194,40.470183382041));
#279=CARTESIAN_POINT('Ctrl Pts',(-10.3741781728688,-30.0810897960942,40.9483376847018));
#280=CARTESIAN_POINT('Ctrl Pts',(-14.2555459001714,-28.4477637044778,42.0994395758862));
#281=CARTESIAN_POINT('Ctrl Pts',(-16.1011842378728,-27.4416584674795,42.7716272058965));
#282=CARTESIAN_POINT('Ctrl Pts',(-19.5070861921063,-25.1349625440069,44.1666205508562));
#283=CARTESIAN_POINT('Ctrl Pts',(-21.0674309397917,-23.8338496655541,44.8883644582043));
#284=CARTESIAN_POINT('Ctrl Pts',(-23.8229187414464,-21.0783618638994,46.2458958615018));
#285=CARTESIAN_POINT('Ctrl Pts',(-25.1221523485713,-19.5237509752289,46.9337040787394));
#286=CARTESIAN_POINT('Ctrl Pts',(-27.4327361664244,-16.1165870306932,48.2100098850513));
#287=CARTESIAN_POINT('Ctrl Pts',(-28.4442431879548,-14.2638439505247,48.797716174607));
#288=CARTESIAN_POINT('Ctrl Pts',(-30.0843351451219,-10.3665340065625,49.7715715457121));
#289=CARTESIAN_POINT('Ctrl Pts',(-30.7142535634075,-8.31793269975964,50.1581054645013));
#290=CARTESIAN_POINT('Ctrl Pts',(-31.5472498819018,-4.16225915492466,50.672469319491));
#291=CARTESIAN_POINT('Ctrl Pts',(-31.75,-2.05508418608116,50.8));
#292=CARTESIAN_POINT('Ctrl Pts',(-31.75,-3.88578058618805E-15,50.8));
#293=CARTESIAN_POINT('Ctrl Pts',(-31.75,-4.9960036108132E-15,50.8));
#294=CARTESIAN_POINT('Ctrl Pts',(-31.75,2.05508418608116,50.8));
#295=CARTESIAN_POINT('Ctrl Pts',(-31.5472498819018,4.16225915492466,50.672469319491));
#296=CARTESIAN_POINT('Ctrl Pts',(-30.7142535634075,8.31793269975964,50.1581054645013));
#297=CARTESIAN_POINT('Ctrl Pts',(-30.0843351451219,10.3665340065625,49.7715715457121));
#298=CARTESIAN_POINT('Ctrl Pts',(-28.4442431879548,14.2638439505247,48.797716174607));
#299=CARTESIAN_POINT('Ctrl Pts',(-27.4327361664244,16.1165870306932,48.2100098850513));
#300=CARTESIAN_POINT('Ctrl Pts',(-25.1221523485713,19.5237509752289,46.9337040787394));
#301=CARTESIAN_POINT('Ctrl Pts',(-23.8229187414464,21.0783618638994,46.2458958615018));
#302=CARTESIAN_POINT('Ctrl Pts',(-21.0674309397917,23.8338496655541,44.8883644582043));
#303=CARTESIAN_POINT('Ctrl Pts',(-19.5070861921063,25.1349625440069,44.1666205508562));
#304=CARTESIAN_POINT('Ctrl Pts',(-16.1011842378728,27.4416584674795,42.7716272058965));
#305=CARTESIAN_POINT('Ctrl Pts',(-14.2555459001714,28.4477637044778,42.0994395758862));
#306=CARTESIAN_POINT('Ctrl Pts',(-10.3741781728688,30.0810897960942,40.9483376847018));
#307=CARTESIAN_POINT('Ctrl Pts',(-8.33436368584647,30.7096586696194,40.470183382041));
#308=CARTESIAN_POINT('Ctrl Pts',(-4.1831822522282,31.5443455685675,39.8230227833115));
#309=CARTESIAN_POINT('Ctrl Pts',(-2.07145401937322,31.75,39.6557372898298));
#310=CARTESIAN_POINT('Ctrl Pts',(2.07145401937321,31.75,39.6557372898298));
#311=CARTESIAN_POINT('Ctrl Pts',(4.18318225222819,31.5443455685675,39.8230227833115));
#312=CARTESIAN_POINT('Ctrl Pts',(8.33436368584646,30.7096586696194,40.470183382041));
#313=CARTESIAN_POINT('Ctrl Pts',(10.3741781728688,30.0810897960942,40.9483376847018));
#314=CARTESIAN_POINT('Ctrl Pts',(14.2555459001714,28.4477637044778,42.0994395758862));
#315=CARTESIAN_POINT('Ctrl Pts',(16.1011842378728,27.4416584674795,42.7716272058965));
#316=CARTESIAN_POINT('Ctrl Pts',(19.5070861921063,25.1349625440069,44.1666205508562));
#317=CARTESIAN_POINT('Ctrl Pts',(21.0674309397917,23.8338496655541,44.8883644582043));
#318=CARTESIAN_POINT('Ctrl Pts',(23.8229187414464,21.0783618638994,46.2458958615018));
#319=CARTESIAN_POINT('Ctrl Pts',(25.1221523485713,19.5237509752289,46.9337040787394));
#320=CARTESIAN_POINT('Ctrl Pts',(27.4327361664244,16.1165870306932,48.2100098850513));
#321=CARTESIAN_POINT('Ctrl Pts',(28.4442431879548,14.2638439505247,48.797716174607));
#322=CARTESIAN_POINT('Ctrl Pts',(30.0843351451219,10.3665340065626,49.7715715457121));
#323=CARTESIAN_POINT('Ctrl Pts',(30.7142535634075,8.31793269975966,50.1581054645013));
#324=CARTESIAN_POINT('Ctrl Pts',(31.5472498819018,4.16225915492467,50.672469319491));
#325=CARTESIAN_POINT('Ctrl Pts',(31.75,2.05508418608117,50.8));
#326=CARTESIAN_POINT('Ctrl Pts',(31.75,-2.05508418608116,50.8));
#327=CARTESIAN_POINT('Ctrl Pts',(31.5472498819019,-4.16225915492466,50.672469319491));
#328=CARTESIAN_POINT('Ctrl Pts',(30.7142535634075,-8.31793269975965,50.1581054645013));
#329=CARTESIAN_POINT('Ctrl Pts',(30.0843351451219,-10.3665340065626,49.7715715457121));
#330=CARTESIAN_POINT('Ctrl Pts',(28.4442431879548,-14.2638439505247,48.797716174607));
#331=CARTESIAN_POINT('Ctrl Pts',(27.4327361664244,-16.1165870306932,48.2100098850513));
#332=CARTESIAN_POINT('Ctrl Pts',(25.1221523485713,-19.5237509752289,46.9337040787394));
#333=CARTESIAN_POINT('Ctrl Pts',(23.8229187414464,-21.0783618638994,46.2458958615018));
#334=CARTESIAN_POINT('Ctrl Pts',(21.0674309397917,-23.8338496655541,44.8883644582043));
#335=CARTESIAN_POINT('Ctrl Pts',(19.5070861921063,-25.1349625440069,44.1666205508562));
#336=CARTESIAN_POINT('Ctrl Pts',(16.1011842378728,-27.4416584674794,42.7716272058965));
#337=CARTESIAN_POINT('Ctrl Pts',(14.2555459001714,-28.4477637044778,42.0994395758862));
#338=CARTESIAN_POINT('Ctrl Pts',(10.3741781728688,-30.0810897960942,40.9483376847019));
#339=CARTESIAN_POINT('Ctrl Pts',(8.33436368584648,-30.7096586696194,40.4701833820411));
#340=CARTESIAN_POINT('Ctrl Pts',(4.18318225222821,-31.5443455685675,39.8230227833115));
#341=CARTESIAN_POINT('Ctrl Pts',(2.07145401937322,-31.75,39.6557372898298));
#342=CARTESIAN_POINT('Ctrl Pts',(0.,-31.75,39.6557372898298));
#343=CARTESIAN_POINT('Origin',(0.,0.,55.2));
#344=CARTESIAN_POINT('Origin',(-133.4,0.,0.));
#345=CARTESIAN_POINT('',(-133.4,-50.8,-6.22120573966855E-15));
#346=CARTESIAN_POINT('Origin',(-133.4,0.,0.));
#347=CARTESIAN_POINT('Origin',(0.,0.,0.));
#348=CARTESIAN_POINT('',(133.4,-50.8,-6.22120573966855E-15));
#349=CARTESIAN_POINT('Origin',(133.4,0.,0.));
#350=CARTESIAN_POINT('',(0.,-50.8,-6.22120573966855E-15));
#351=CARTESIAN_POINT('Origin',(133.4,0.,0.));
#352=UNCERTAINTY_MEASURE_WITH_UNIT(LENGTH_MEASURE(0.01),#356,
'DISTANCE_ACCURACY_VALUE',
'Maximum model space distance between geometric entities at asserted c
onnectivities');
#353=UNCERTAINTY_MEASURE_WITH_UNIT(LENGTH_MEASURE(0.01),#356,
'DISTANCE_ACCURACY_VALUE',
'Maximum model space distance between geometric entities at asserted c
onnectivities');
#354=(
GEOMETRIC_REPRESENTATION_CONTEXT(3)
GLOBAL_UNCERTAINTY_ASSIGNED_CONTEXT((#352))
GLOBAL_UNIT_ASSIGNED_CONTEXT((#356,#358,#359))
REPRESENTATION_CONTEXT('','3D')
);
#355=(
GEOMETRIC_REPRESENTATION_CONTEXT(3)
GLOBAL_UNCERTAINTY_ASSIGNED_CONTEXT((#353))
GLOBAL_UNIT_ASSIGNED_CONTEXT((#356,#358,#359))
REPRESENTATION_CONTEXT('','3D')
);
#356=(
LENGTH_UNIT()
NAMED_UNIT(*)
SI_UNIT(.MILLI.,.METRE.)
);
#357=(
LENGTH_UNIT()
NAMED_UNIT(*)
SI_UNIT(.CENTI.,.METRE.)
);
#358=(
NAMED_UNIT(*)
PLANE_ANGLE_UNIT()
SI_UNIT($,.RADIAN.)
);
#359=(
NAMED_UNIT(*)
SI_UNIT($,.STERADIAN.)
SOLID_ANGLE_UNIT()
);
#360=SHAPE_DEFINITION_REPRESENTATION(#361,#362);
#361=PRODUCT_DEFINITION_SHAPE('',$,#364);
#362=SHAPE_REPRESENTATION('',(#142),#354);
#363=PRODUCT_DEFINITION_CONTEXT('part definition',#368,'design');
#364=PRODUCT_DEFINITION('T-8 40\X\D725','T-8 40\X\D725',#365,#363);
#365=PRODUCT_DEFINITION_FORMATION('',$,#370);
#366=PRODUCT_RELATED_PRODUCT_CATEGORY('T-8 40\X\D725','T-8 40\X\D725',(#370));
#367=APPLICATION_PROTOCOL_DEFINITION('international standard',
'automotive_design',2009,#368);
#368=APPLICATION_CONTEXT(
'Core Data for Automotive Mechanical Design Process');
#369=PRODUCT_CONTEXT('part definition',#368,'mechanical');
#370=PRODUCT('T-8 40\X\D725','T-8 40\X\D725',$,(#369));
#371=PRESENTATION_STYLE_ASSIGNMENT((#372));
#372=SURFACE_STYLE_USAGE(.BOTH.,#375);
#373=SURFACE_STYLE_RENDERING_WITH_PROPERTIES($,#379,(#374));
#374=SURFACE_STYLE_TRANSPARENT(0.);
#375=SURFACE_SIDE_STYLE('',(#376,#373));
#376=SURFACE_STYLE_FILL_AREA(#377);
#377=FILL_AREA_STYLE('',(#378));
#378=FILL_AREA_STYLE_COLOUR('',#379);
#379=COLOUR_RGB('',0.749019607843137,0.749019607843137,0.749019607843137);
ENDSEC;
END-ISO-10303-21;
