ISO-10303-21;
HEADER;
/* Generated by software containing ST-Developer
 * from STEP Tools, Inc. (www.steptools.com) 
 */

FILE_DESCRIPTION(
/* description */ (''),
/* implementation_level */ '2;1');

FILE_NAME(
/* name */ 
'\\\\Tske00\\w\\Work\\TOSTE\\\X2\7D99624B\X0\\\02_\X2\6EB663A5\X0\\\\X2\6EB663A5752830C130FC30BA\X0\\\
T-8\\T-8 40\X\D715.stp',
/* time_stamp */ '2022-04-28T09:40:37+09:00',
/* author */ ('3dcad-eng'),
/* organization */ (''),
/* preprocessor_version */ 'ST-DEVELOPER v18.1',
/* originating_system */ 'Autodesk Inventor 2022',
/* authorisation */ '');

FILE_SCHEMA (('AUTOMOTIVE_DESIGN { 1 0 10303 214 3 1 1 }'));
ENDSEC;

DATA;
#10=MECHANICAL_DESIGN_GEOMETRIC_PRESENTATION_REPRESENTATION('',(#13),#355);
#11=SHAPE_REPRESENTATION_RELATIONSHIP('SRR','None',#362,#12);
#12=ADVANCED_BREP_SHAPE_REPRESENTATION('',(#14),#354);
#13=STYLED_ITEM('',(#371),#14);
#14=MANIFOLD_SOLID_BREP('\X2\30BD30EA30C330C9\X0\1',#123);
#15=PLANE('',#150);
#16=PLANE('',#151);
#17=PLANE('',#155);
#18=FACE_BOUND('',#32,.T.);
#19=FACE_BOUND('',#35,.T.);
#20=FACE_BOUND('',#37,.T.);
#21=FACE_BOUND('',#39,.T.);
#22=FACE_BOUND('',#41,.T.);
#23=FACE_OUTER_BOUND('',#30,.T.);
#24=FACE_OUTER_BOUND('',#31,.T.);
#25=FACE_OUTER_BOUND('',#33,.T.);
#26=FACE_OUTER_BOUND('',#34,.T.);
#27=FACE_OUTER_BOUND('',#36,.T.);
#28=FACE_OUTER_BOUND('',#38,.T.);
#29=FACE_OUTER_BOUND('',#40,.T.);
#30=EDGE_LOOP('',(#84,#85,#86,#87,#88));
#31=EDGE_LOOP('',(#89,#90,#91,#92));
#32=EDGE_LOOP('',(#93,#94));
#33=EDGE_LOOP('',(#95,#96,#97,#98,#99));
#34=EDGE_LOOP('',(#100));
#35=EDGE_LOOP('',(#101));
#36=EDGE_LOOP('',(#102));
#37=EDGE_LOOP('',(#103));
#38=EDGE_LOOP('',(#104,#105,#106,#107));
#39=EDGE_LOOP('',(#108,#109));
#40=EDGE_LOOP('',(#110));
#41=EDGE_LOOP('',(#111));
#42=CIRCLE('',#144,17.85);
#43=CIRCLE('',#146,48.8);
#44=CIRCLE('',#147,48.8);
#45=CIRCLE('',#149,19.05);
#46=CIRCLE('',#152,50.8);
#47=CIRCLE('',#154,50.8);
#48=LINE('',#261,#52);
#49=LINE('',#267,#53);
#50=LINE('',#273,#54);
#51=LINE('',#350,#55);
#52=VECTOR('',#160,17.85);
#53=VECTOR('',#167,48.8);
#54=VECTOR('',#174,19.05);
#55=VECTOR('',#185,50.8);
#56=B_SPLINE_CURVE_WITH_KNOTS('',3,(#192,#193,#194,#195,#196,#197,#198,
#199,#200,#201,#202,#203,#204,#205,#206,#207,#208,#209,#210,#211,#212,#213,
#214,#215,#216,#217,#218,#219,#220,#221,#222,#223,#224,#225,#226,#227,#228,
#229,#230,#231,#232,#233,#234,#235,#236,#237,#238,#239,#240,#241),
 .UNSPECIFIED.,.F.,.F.,(4,2,2,2,2,2,2,2,2,2,2,2,2,2,2,2,2,2,2,2,2,2,2,2,
4),(0.,0.339751125211324,0.679502250422648,1.01925337563397,1.3590045008453,
1.69852177778354,2.03803905472178,2.37755633166003,2.71707360859827,3.05659088553651,
3.39610816247476,3.735625439413,4.07514271635124,4.41489384156257,4.75464496677389,
5.09439609198522,5.43414721719654,5.77389834240786,6.11364946761919,6.45340059283051,
6.79315171804184,7.13266899498008,7.47218627191832,7.81170354885657,8.15122082579481),
 .UNSPECIFIED.);
#57=B_SPLINE_CURVE_WITH_KNOTS('',3,(#242,#243,#244,#245,#246,#247,#248,
#249,#250,#251,#252,#253,#254,#255,#256,#257,#258,#259),.UNSPECIFIED.,.F.,
 .F.,(4,2,2,2,2,2,2,2,4),(8.15122082579481,8.49073810273305,8.8302553796713,
9.16977265660954,9.50928993354778,9.84904105875911,10.1887921839704,10.5285433091818,
10.8682944343931),.UNSPECIFIED.);
#58=B_SPLINE_CURVE_WITH_KNOTS('',3,(#275,#276,#277,#278,#279,#280,#281,
#282,#283,#284,#285,#286,#287,#288,#289,#290,#291,#292),.UNSPECIFIED.,.F.,
 .F.,(4,2,2,2,2,2,2,2,4),(0.,0.36280756084128,0.72561512168256,1.08842268252384,
1.45123024336512,1.81375997762699,2.17628971188886,2.53881944615073,2.9013491804126),
 .UNSPECIFIED.);
#59=B_SPLINE_CURVE_WITH_KNOTS('',3,(#293,#294,#295,#296,#297,#298,#299,
#300,#301,#302,#303,#304,#305,#306,#307,#308,#309,#310,#311,#312,#313,#314,
#315,#316,#317,#318,#319,#320,#321,#322,#323,#324,#325,#326,#327,#328,#329,
#330,#331,#332,#333,#334,#335,#336,#337,#338,#339,#340,#341,#342),
 .UNSPECIFIED.,.F.,.F.,(4,2,2,2,2,2,2,2,2,2,2,2,2,2,2,2,2,2,2,2,2,2,2,2,
4),(2.9013491804126,3.26387891467446,3.62640864893633,3.9889383831982,4.35146811746007,
4.71427567830135,5.07708323914263,5.43989079998391,5.80269836082519,6.16550592166647,
6.52831348250775,6.89112104334903,7.25392860419031,7.61645833845218,7.97898807271405,
8.34151780697592,8.70404754123778,9.06657727549965,9.42910700976152,9.79163674402339,
10.1541664782853,10.5169740391265,10.8797815999678,11.2425891608091,11.6053967216504),
 .UNSPECIFIED.);
#60=VERTEX_POINT('',#190);
#61=VERTEX_POINT('',#191);
#62=VERTEX_POINT('',#260);
#63=VERTEX_POINT('',#264);
#64=VERTEX_POINT('',#266);
#65=VERTEX_POINT('',#270);
#66=VERTEX_POINT('',#272);
#67=VERTEX_POINT('',#274);
#68=VERTEX_POINT('',#345);
#69=VERTEX_POINT('',#348);
#70=EDGE_CURVE('',#60,#61,#56,.T.);
#71=EDGE_CURVE('',#61,#60,#57,.T.);
#72=EDGE_CURVE('',#61,#62,#48,.T.);
#73=EDGE_CURVE('',#62,#62,#42,.T.);
#74=EDGE_CURVE('',#63,#63,#43,.T.);
#75=EDGE_CURVE('',#63,#64,#49,.T.);
#76=EDGE_CURVE('',#64,#64,#44,.T.);
#77=EDGE_CURVE('',#65,#65,#45,.T.);
#78=EDGE_CURVE('',#65,#66,#50,.T.);
#79=EDGE_CURVE('',#67,#66,#58,.T.);
#80=EDGE_CURVE('',#66,#67,#59,.T.);
#81=EDGE_CURVE('',#68,#68,#46,.T.);
#82=EDGE_CURVE('',#69,#69,#47,.T.);
#83=EDGE_CURVE('',#69,#68,#51,.T.);
#84=ORIENTED_EDGE('',*,*,#70,.F.);
#85=ORIENTED_EDGE('',*,*,#71,.F.);
#86=ORIENTED_EDGE('',*,*,#72,.T.);
#87=ORIENTED_EDGE('',*,*,#73,.F.);
#88=ORIENTED_EDGE('',*,*,#72,.F.);
#89=ORIENTED_EDGE('',*,*,#74,.F.);
#90=ORIENTED_EDGE('',*,*,#75,.T.);
#91=ORIENTED_EDGE('',*,*,#76,.F.);
#92=ORIENTED_EDGE('',*,*,#75,.F.);
#93=ORIENTED_EDGE('',*,*,#70,.T.);
#94=ORIENTED_EDGE('',*,*,#71,.T.);
#95=ORIENTED_EDGE('',*,*,#77,.F.);
#96=ORIENTED_EDGE('',*,*,#78,.T.);
#97=ORIENTED_EDGE('',*,*,#79,.F.);
#98=ORIENTED_EDGE('',*,*,#80,.F.);
#99=ORIENTED_EDGE('',*,*,#78,.F.);
#100=ORIENTED_EDGE('',*,*,#77,.T.);
#101=ORIENTED_EDGE('',*,*,#73,.T.);
#102=ORIENTED_EDGE('',*,*,#81,.T.);
#103=ORIENTED_EDGE('',*,*,#74,.T.);
#104=ORIENTED_EDGE('',*,*,#82,.F.);
#105=ORIENTED_EDGE('',*,*,#83,.T.);
#106=ORIENTED_EDGE('',*,*,#81,.F.);
#107=ORIENTED_EDGE('',*,*,#83,.F.);
#108=ORIENTED_EDGE('',*,*,#79,.T.);
#109=ORIENTED_EDGE('',*,*,#80,.T.);
#110=ORIENTED_EDGE('',*,*,#82,.T.);
#111=ORIENTED_EDGE('',*,*,#76,.T.);
#112=CYLINDRICAL_SURFACE('',#143,17.85);
#113=CYLINDRICAL_SURFACE('',#145,48.8);
#114=CYLINDRICAL_SURFACE('',#148,19.05);
#115=CYLINDRICAL_SURFACE('',#153,50.8);
#116=ADVANCED_FACE('',(#23),#112,.F.);
#117=ADVANCED_FACE('',(#24,#18),#113,.F.);
#118=ADVANCED_FACE('',(#25),#114,.T.);
#119=ADVANCED_FACE('',(#26,#19),#15,.T.);
#120=ADVANCED_FACE('',(#27,#20),#16,.F.);
#121=ADVANCED_FACE('',(#28,#21),#115,.T.);
#122=ADVANCED_FACE('',(#29,#22),#17,.T.);
#123=CLOSED_SHELL('',(#116,#117,#118,#119,#120,#121,#122));
#124=DERIVED_UNIT_ELEMENT(#126,1.);
#125=DERIVED_UNIT_ELEMENT(#357,-3.);
#126=(
MASS_UNIT()
NAMED_UNIT(*)
SI_UNIT($,.GRAM.)
);
#127=DERIVED_UNIT((#124,#125));
#128=MEASURE_REPRESENTATION_ITEM('density measure',
POSITIVE_RATIO_MEASURE(1.),#127);
#129=PROPERTY_DEFINITION_REPRESENTATION(#134,#131);
#130=PROPERTY_DEFINITION_REPRESENTATION(#135,#132);
#131=REPRESENTATION('material name',(#133),#354);
#132=REPRESENTATION('density',(#128),#354);
#133=DESCRIPTIVE_REPRESENTATION_ITEM('\X2\4E00822C\X0\','\X2\4E00822C\X0\');
#134=PROPERTY_DEFINITION('material property','material name',#364);
#135=PROPERTY_DEFINITION('material property','density of part',#364);
#136=DATE_TIME_ROLE('creation_date');
#137=APPLIED_DATE_AND_TIME_ASSIGNMENT(#138,#136,(#364));
#138=DATE_AND_TIME(#139,#140);
#139=CALENDAR_DATE(2022,31,3);
#140=LOCAL_TIME(0,0,0.,#141);
#141=COORDINATED_UNIVERSAL_TIME_OFFSET(0,0,.BEHIND.);
#142=AXIS2_PLACEMENT_3D('placement',#188,#156,#157);
#143=AXIS2_PLACEMENT_3D('',#189,#158,#159);
#144=AXIS2_PLACEMENT_3D('',#262,#161,#162);
#145=AXIS2_PLACEMENT_3D('',#263,#163,#164);
#146=AXIS2_PLACEMENT_3D('',#265,#165,#166);
#147=AXIS2_PLACEMENT_3D('',#268,#168,#169);
#148=AXIS2_PLACEMENT_3D('',#269,#170,#171);
#149=AXIS2_PLACEMENT_3D('',#271,#172,#173);
#150=AXIS2_PLACEMENT_3D('',#343,#175,#176);
#151=AXIS2_PLACEMENT_3D('',#344,#177,#178);
#152=AXIS2_PLACEMENT_3D('',#346,#179,#180);
#153=AXIS2_PLACEMENT_3D('',#347,#181,#182);
#154=AXIS2_PLACEMENT_3D('',#349,#183,#184);
#155=AXIS2_PLACEMENT_3D('',#351,#186,#187);
#156=DIRECTION('axis',(0.,0.,1.));
#157=DIRECTION('refdir',(1.,0.,0.));
#158=DIRECTION('center_axis',(0.,0.,1.));
#159=DIRECTION('ref_axis',(1.,0.,0.));
#160=DIRECTION('',(0.,0.,1.));
#161=DIRECTION('center_axis',(0.,0.,-1.));
#162=DIRECTION('ref_axis',(1.,0.,0.));
#163=DIRECTION('center_axis',(1.,0.,0.));
#164=DIRECTION('ref_axis',(0.,1.,0.));
#165=DIRECTION('center_axis',(1.,0.,0.));
#166=DIRECTION('ref_axis',(0.,1.,0.));
#167=DIRECTION('',(1.,0.,0.));
#168=DIRECTION('center_axis',(-1.,0.,0.));
#169=DIRECTION('ref_axis',(0.,1.,0.));
#170=DIRECTION('center_axis',(0.,0.,1.));
#171=DIRECTION('ref_axis',(1.,0.,0.));
#172=DIRECTION('center_axis',(0.,0.,1.));
#173=DIRECTION('ref_axis',(1.,0.,0.));
#174=DIRECTION('',(0.,0.,-1.));
#175=DIRECTION('center_axis',(0.,0.,1.));
#176=DIRECTION('ref_axis',(1.,0.,0.));
#177=DIRECTION('center_axis',(1.,0.,0.));
#178=DIRECTION('ref_axis',(0.,0.,-1.));
#179=DIRECTION('center_axis',(-1.,0.,0.));
#180=DIRECTION('ref_axis',(0.,1.,0.));
#181=DIRECTION('center_axis',(1.,0.,0.));
#182=DIRECTION('ref_axis',(0.,1.,0.));
#183=DIRECTION('center_axis',(1.,0.,0.));
#184=DIRECTION('ref_axis',(0.,1.,0.));
#185=DIRECTION('',(-1.,0.,0.));
#186=DIRECTION('center_axis',(1.,0.,0.));
#187=DIRECTION('ref_axis',(0.,0.,-1.));
#188=CARTESIAN_POINT('',(0.,0.,0.));
#189=CARTESIAN_POINT('Origin',(0.,0.,0.));
#190=CARTESIAN_POINT('',(5.55111512312578E-16,-17.85,45.4182507369009));
#191=CARTESIAN_POINT('',(-17.85,-2.60329999770145E-16,48.8));
#192=CARTESIAN_POINT('Ctrl Pts',(5.55111512312578E-16,-17.85,45.4182507369009));
#193=CARTESIAN_POINT('Ctrl Pts',(1.13250375070441,-17.85,45.4182507369009));
#194=CARTESIAN_POINT('Ctrl Pts',(2.29987671497231,-17.7404905021077,45.4617964225507));
#195=CARTESIAN_POINT('Ctrl Pts',(4.61479999330579,-17.283461959315,45.637505188274));
#196=CARTESIAN_POINT('Ctrl Pts',(5.76239267271075,-16.9360829142277,45.7694741780522));
#197=CARTESIAN_POINT('Ctrl Pts',(7.95766577672313,-16.022224022633,46.0973315999681));
#198=CARTESIAN_POINT('Ctrl Pts',(9.00729497132779,-15.4550196000578,46.2931149701092));
#199=CARTESIAN_POINT('Ctrl Pts',(10.9459749071114,-14.1483082729731,46.7090515575682));
#200=CARTESIAN_POINT('Ctrl Pts',(11.835033234382,-13.4086788539778,46.9287844078901));
#201=CARTESIAN_POINT('Ctrl Pts',(13.4081372894571,-11.8355747989027,47.3499918772492));
#202=CARTESIAN_POINT('Ctrl Pts',(14.1476997095276,-10.9467746080328,47.5666782320643));
#203=CARTESIAN_POINT('Ctrl Pts',(15.4546442497475,-9.00795495958524,47.9716322401396));
#204=CARTESIAN_POINT('Ctrl Pts',(16.0221253998336,-7.95792729904797,48.1595409257772));
#205=CARTESIAN_POINT('Ctrl Pts',(16.9362967613118,-5.76185435547275,48.4713422915063));
#206=CARTESIAN_POINT('Ctrl Pts',(17.2837131703277,-4.61387198716068,48.5952549416358));
#207=CARTESIAN_POINT('Ctrl Pts',(17.7406303731819,-2.29882353240469,48.7596352316564));
#208=CARTESIAN_POINT('Ctrl Pts',(17.85,-1.13172425646081,48.8));
#209=CARTESIAN_POINT('Ctrl Pts',(17.85,1.13172425646081,48.8));
#210=CARTESIAN_POINT('Ctrl Pts',(17.7406303731819,2.29882353240469,48.7596352316564));
#211=CARTESIAN_POINT('Ctrl Pts',(17.2837131703277,4.61387198716068,48.5952549416358));
#212=CARTESIAN_POINT('Ctrl Pts',(16.9362967613118,5.76185435547274,48.4713422915063));
#213=CARTESIAN_POINT('Ctrl Pts',(16.0221253998336,7.95792729904797,48.1595409257772));
#214=CARTESIAN_POINT('Ctrl Pts',(15.4546442497475,9.00795495958524,47.9716322401396));
#215=CARTESIAN_POINT('Ctrl Pts',(14.1476997095276,10.9467746080328,47.5666782320643));
#216=CARTESIAN_POINT('Ctrl Pts',(13.4081372894571,11.8355747989027,47.3499918772492));
#217=CARTESIAN_POINT('Ctrl Pts',(11.835033234382,13.4086788539778,46.9287844078901));
#218=CARTESIAN_POINT('Ctrl Pts',(10.9459749071114,14.1483082729731,46.7090515575682));
#219=CARTESIAN_POINT('Ctrl Pts',(9.00729497132779,15.4550196000578,46.2931149701092));
#220=CARTESIAN_POINT('Ctrl Pts',(7.95766577672313,16.022224022633,46.0973315999681));
#221=CARTESIAN_POINT('Ctrl Pts',(5.76239267271074,16.9360829142277,45.7694741780522));
#222=CARTESIAN_POINT('Ctrl Pts',(4.61479999330579,17.283461959315,45.637505188274));
#223=CARTESIAN_POINT('Ctrl Pts',(2.2998767149723,17.7404905021077,45.4617964225507));
#224=CARTESIAN_POINT('Ctrl Pts',(1.13250375070441,17.85,45.4182507369009));
#225=CARTESIAN_POINT('Ctrl Pts',(-1.13250375070441,17.85,45.4182507369009));
#226=CARTESIAN_POINT('Ctrl Pts',(-2.2998767149723,17.7404905021077,45.4617964225507));
#227=CARTESIAN_POINT('Ctrl Pts',(-4.61479999330579,17.283461959315,45.637505188274));
#228=CARTESIAN_POINT('Ctrl Pts',(-5.76239267271074,16.9360829142277,45.7694741780522));
#229=CARTESIAN_POINT('Ctrl Pts',(-7.95766577672313,16.022224022633,46.0973315999681));
#230=CARTESIAN_POINT('Ctrl Pts',(-9.00729497132779,15.4550196000578,46.2931149701092));
#231=CARTESIAN_POINT('Ctrl Pts',(-10.9459749071114,14.1483082729731,46.7090515575682));
#232=CARTESIAN_POINT('Ctrl Pts',(-11.835033234382,13.4086788539778,46.9287844078901));
#233=CARTESIAN_POINT('Ctrl Pts',(-13.4081372894571,11.8355747989027,47.3499918772492));
#234=CARTESIAN_POINT('Ctrl Pts',(-14.1476997095276,10.9467746080328,47.5666782320643));
#235=CARTESIAN_POINT('Ctrl Pts',(-15.4546442497475,9.00795495958524,47.9716322401396));
#236=CARTESIAN_POINT('Ctrl Pts',(-16.0221253998336,7.95792729904797,48.1595409257772));
#237=CARTESIAN_POINT('Ctrl Pts',(-16.9362967613118,5.76185435547275,48.4713422915063));
#238=CARTESIAN_POINT('Ctrl Pts',(-17.2837131703277,4.61387198716068,48.5952549416358));
#239=CARTESIAN_POINT('Ctrl Pts',(-17.7406303731819,2.29882353240469,48.7596352316564));
#240=CARTESIAN_POINT('Ctrl Pts',(-17.85,1.13172425646082,48.8));
#241=CARTESIAN_POINT('Ctrl Pts',(-17.85,2.77555756156289E-15,48.8));
#242=CARTESIAN_POINT('Ctrl Pts',(-17.85,1.38777878078145E-15,48.8));
#243=CARTESIAN_POINT('Ctrl Pts',(-17.85,-1.13172425646081,48.8));
#244=CARTESIAN_POINT('Ctrl Pts',(-17.7406303731819,-2.29882353240469,48.7596352316564));
#245=CARTESIAN_POINT('Ctrl Pts',(-17.2837131703277,-4.61387198716068,48.5952549416358));
#246=CARTESIAN_POINT('Ctrl Pts',(-16.9362967613118,-5.76185435547275,48.4713422915063));
#247=CARTESIAN_POINT('Ctrl Pts',(-16.0221253998336,-7.95792729904797,48.1595409257772));
#248=CARTESIAN_POINT('Ctrl Pts',(-15.4546442497475,-9.00795495958524,47.9716322401396));
#249=CARTESIAN_POINT('Ctrl Pts',(-14.1476997095276,-10.9467746080328,47.5666782320643));
#250=CARTESIAN_POINT('Ctrl Pts',(-13.4081372894571,-11.8355747989027,47.3499918772492));
#251=CARTESIAN_POINT('Ctrl Pts',(-11.835033234382,-13.4086788539778,46.9287844078901));
#252=CARTESIAN_POINT('Ctrl Pts',(-10.9459749071114,-14.1483082729731,46.7090515575682));
#253=CARTESIAN_POINT('Ctrl Pts',(-9.00729497132778,-15.4550196000578,46.2931149701092));
#254=CARTESIAN_POINT('Ctrl Pts',(-7.95766577672312,-16.022224022633,46.0973315999681));
#255=CARTESIAN_POINT('Ctrl Pts',(-5.76239267271074,-16.9360829142277,45.7694741780522));
#256=CARTESIAN_POINT('Ctrl Pts',(-4.61479999330579,-17.283461959315,45.637505188274));
#257=CARTESIAN_POINT('Ctrl Pts',(-2.2998767149723,-17.7404905021077,45.4617964225507));
#258=CARTESIAN_POINT('Ctrl Pts',(-1.13250375070441,-17.85,45.4182507369009));
#259=CARTESIAN_POINT('Ctrl Pts',(5.55111512312578E-16,-17.85,45.4182507369009));
#260=CARTESIAN_POINT('',(-17.85,2.18599453647803E-15,55.2));
#261=CARTESIAN_POINT('',(-17.85,-2.18599453647803E-15,0.));
#262=CARTESIAN_POINT('Origin',(0.,0.,55.2));
#263=CARTESIAN_POINT('Origin',(0.,0.,0.));
#264=CARTESIAN_POINT('',(-133.4,-48.8,-5.97627637983908E-15));
#265=CARTESIAN_POINT('Origin',(-133.4,0.,0.));
#266=CARTESIAN_POINT('',(133.4,-48.8,5.97627637983908E-15));
#267=CARTESIAN_POINT('',(0.,-48.8,-5.97627637983908E-15));
#268=CARTESIAN_POINT('Origin',(133.4,0.,0.));
#269=CARTESIAN_POINT('Origin',(0.,0.,0.));
#270=CARTESIAN_POINT('',(-19.05,-2.33295215237571E-15,55.2));
#271=CARTESIAN_POINT('Origin',(0.,0.,55.2));
#272=CARTESIAN_POINT('',(-19.05,-2.27669910081301E-15,50.8));
#273=CARTESIAN_POINT('',(-19.05,-2.33295215237571E-15,0.));
#274=CARTESIAN_POINT('',(2.77555756156289E-16,-19.05,47.0928603930575));
#275=CARTESIAN_POINT('Ctrl Pts',(2.77555756156289E-16,-19.05,47.0928603930575));
#276=CARTESIAN_POINT('Ctrl Pts',(-1.2093585361376,-19.05,47.0928603930575));
#277=CARTESIAN_POINT('Ctrl Pts',(-2.45570499594106,-18.9329904413443,47.1407546166682));
#278=CARTESIAN_POINT('Ctrl Pts',(-4.92678811265643,-18.4449281136196,47.3338515190468));
#279=CARTESIAN_POINT('Ctrl Pts',(-6.15157192297621,-18.0740275599592,47.478835407671));
#280=CARTESIAN_POINT('Ctrl Pts',(-8.49417949895134,-17.0985749210538,47.8387811944748));
#281=CARTESIAN_POINT('Ctrl Pts',(-9.61409417843869,-16.4932494888007,48.0536239532099));
#282=CARTESIAN_POINT('Ctrl Pts',(-11.6824802100504,-15.0989318115709,48.5097960394791));
#283=CARTESIAN_POINT('Ctrl Pts',(-12.6309627011348,-14.3098056620726,48.7506654473636));
#284=CARTESIAN_POINT('Ctrl Pts',(-14.3091628595961,-12.6316055036113,49.2121865162558));
#285=CARTESIAN_POINT('Ctrl Pts',(-15.0982088246061,-11.6834300530356,49.449533425724));
#286=CARTESIAN_POINT('Ctrl Pts',(-16.4928023430663,-9.61488005373108,49.8930152963417));
#287=CARTESIAN_POINT('Ctrl Pts',(-17.0984560819435,-8.49449350328975,50.0987602696711));
#288=CARTESIAN_POINT('Ctrl Pts',(-18.0742801800705,-6.15093663183469,50.4401445192572));
#289=CARTESIAN_POINT('Ctrl Pts',(-18.4452258114703,-4.92568911441372,50.5758087892038));
#290=CARTESIAN_POINT('Ctrl Pts',(-18.9331565939333,-2.45445510879864,50.7557927536741));
#291=CARTESIAN_POINT('Ctrl Pts',(-19.05,-1.20843244753957,50.8));
#292=CARTESIAN_POINT('Ctrl Pts',(-19.05,-2.22044604925031E-15,50.8));
#293=CARTESIAN_POINT('Ctrl Pts',(-19.05,-1.94289029309402E-15,50.8));
#294=CARTESIAN_POINT('Ctrl Pts',(-19.05,1.20843244753956,50.8));
#295=CARTESIAN_POINT('Ctrl Pts',(-18.9331565939333,2.45445510879863,50.7557927536741));
#296=CARTESIAN_POINT('Ctrl Pts',(-18.4452258114703,4.92568911441371,50.5758087892038));
#297=CARTESIAN_POINT('Ctrl Pts',(-18.0742801800705,6.15093663183469,50.4401445192572));
#298=CARTESIAN_POINT('Ctrl Pts',(-17.0984560819435,8.49449350328975,50.0987602696711));
#299=CARTESIAN_POINT('Ctrl Pts',(-16.4928023430663,9.61488005373108,49.8930152963417));
#300=CARTESIAN_POINT('Ctrl Pts',(-15.0982088246061,11.6834300530356,49.449533425724));
#301=CARTESIAN_POINT('Ctrl Pts',(-14.3091628595961,12.6316055036113,49.2121865162558));
#302=CARTESIAN_POINT('Ctrl Pts',(-12.6309627011348,14.3098056620726,48.7506654473636));
#303=CARTESIAN_POINT('Ctrl Pts',(-11.6824802100504,15.0989318115709,48.5097960394791));
#304=CARTESIAN_POINT('Ctrl Pts',(-9.61409417843869,16.4932494888007,48.0536239532099));
#305=CARTESIAN_POINT('Ctrl Pts',(-8.49417949895134,17.0985749210538,47.8387811944748));
#306=CARTESIAN_POINT('Ctrl Pts',(-6.15157192297621,18.0740275599592,47.478835407671));
#307=CARTESIAN_POINT('Ctrl Pts',(-4.92678811265643,18.4449281136196,47.3338515190468));
#308=CARTESIAN_POINT('Ctrl Pts',(-2.45570499594106,18.9329904413443,47.1407546166682));
#309=CARTESIAN_POINT('Ctrl Pts',(-1.2093585361376,19.05,47.0928603930575));
#310=CARTESIAN_POINT('Ctrl Pts',(1.2093585361376,19.05,47.0928603930575));
#311=CARTESIAN_POINT('Ctrl Pts',(2.45570499594105,18.9329904413443,47.1407546166682));
#312=CARTESIAN_POINT('Ctrl Pts',(4.92678811265642,18.4449281136196,47.3338515190468));
#313=CARTESIAN_POINT('Ctrl Pts',(6.15157192297621,18.0740275599592,47.478835407671));
#314=CARTESIAN_POINT('Ctrl Pts',(8.49417949895134,17.0985749210538,47.8387811944748));
#315=CARTESIAN_POINT('Ctrl Pts',(9.61409417843869,16.4932494888007,48.0536239532099));
#316=CARTESIAN_POINT('Ctrl Pts',(11.6824802100504,15.0989318115709,48.5097960394791));
#317=CARTESIAN_POINT('Ctrl Pts',(12.6309627011348,14.3098056620726,48.7506654473636));
#318=CARTESIAN_POINT('Ctrl Pts',(14.3091628595961,12.6316055036113,49.2121865162558));
#319=CARTESIAN_POINT('Ctrl Pts',(15.0982088246061,11.6834300530356,49.449533425724));
#320=CARTESIAN_POINT('Ctrl Pts',(16.4928023430663,9.61488005373108,49.8930152963417));
#321=CARTESIAN_POINT('Ctrl Pts',(17.0984560819435,8.49449350328976,50.0987602696711));
#322=CARTESIAN_POINT('Ctrl Pts',(18.0742801800705,6.1509366318347,50.4401445192572));
#323=CARTESIAN_POINT('Ctrl Pts',(18.4452258114703,4.92568911441373,50.5758087892038));
#324=CARTESIAN_POINT('Ctrl Pts',(18.9331565939333,2.45445510879865,50.7557927536741));
#325=CARTESIAN_POINT('Ctrl Pts',(19.05,1.20843244753957,50.8));
#326=CARTESIAN_POINT('Ctrl Pts',(19.05,-1.20843244753956,50.8));
#327=CARTESIAN_POINT('Ctrl Pts',(18.9331565939333,-2.45445510879863,50.7557927536741));
#328=CARTESIAN_POINT('Ctrl Pts',(18.4452258114703,-4.92568911441372,50.5758087892038));
#329=CARTESIAN_POINT('Ctrl Pts',(18.0742801800705,-6.15093663183469,50.4401445192572));
#330=CARTESIAN_POINT('Ctrl Pts',(17.0984560819435,-8.49449350328976,50.0987602696711));
#331=CARTESIAN_POINT('Ctrl Pts',(16.4928023430663,-9.61488005373109,49.8930152963417));
#332=CARTESIAN_POINT('Ctrl Pts',(15.0982088246061,-11.6834300530356,49.449533425724));
#333=CARTESIAN_POINT('Ctrl Pts',(14.3091628595961,-12.6316055036113,49.2121865162558));
#334=CARTESIAN_POINT('Ctrl Pts',(12.6309627011348,-14.3098056620726,48.7506654473636));
#335=CARTESIAN_POINT('Ctrl Pts',(11.6824802100504,-15.0989318115709,48.5097960394791));
#336=CARTESIAN_POINT('Ctrl Pts',(9.61409417843868,-16.4932494888007,48.0536239532099));
#337=CARTESIAN_POINT('Ctrl Pts',(8.49417949895134,-17.0985749210538,47.8387811944748));
#338=CARTESIAN_POINT('Ctrl Pts',(6.15157192297621,-18.0740275599592,47.478835407671));
#339=CARTESIAN_POINT('Ctrl Pts',(4.92678811265643,-18.4449281136196,47.3338515190468));
#340=CARTESIAN_POINT('Ctrl Pts',(2.45570499594106,-18.9329904413443,47.1407546166682));
#341=CARTESIAN_POINT('Ctrl Pts',(1.2093585361376,-19.05,47.0928603930575));
#342=CARTESIAN_POINT('Ctrl Pts',(-5.55111512312578E-16,-19.05,47.0928603930575));
#343=CARTESIAN_POINT('Origin',(0.,0.,55.2));
#344=CARTESIAN_POINT('Origin',(-133.4,0.,0.));
#345=CARTESIAN_POINT('',(-133.4,-50.8,-6.22120573966855E-15));
#346=CARTESIAN_POINT('Origin',(-133.4,0.,0.));
#347=CARTESIAN_POINT('Origin',(0.,0.,0.));
#348=CARTESIAN_POINT('',(133.4,-50.8,-6.22120573966855E-15));
#349=CARTESIAN_POINT('Origin',(133.4,0.,0.));
#350=CARTESIAN_POINT('',(0.,-50.8,-6.22120573966855E-15));
#351=CARTESIAN_POINT('Origin',(133.4,0.,0.));
#352=UNCERTAINTY_MEASURE_WITH_UNIT(LENGTH_MEASURE(0.01),#356,
'DISTANCE_ACCURACY_VALUE',
'Maximum model space distance between geometric entities at asserted c
onnectivities');
#353=UNCERTAINTY_MEASURE_WITH_UNIT(LENGTH_MEASURE(0.01),#356,
'DISTANCE_ACCURACY_VALUE',
'Maximum model space distance between geometric entities at asserted c
onnectivities');
#354=(
GEOMETRIC_REPRESENTATION_CONTEXT(3)
GLOBAL_UNCERTAINTY_ASSIGNED_CONTEXT((#352))
GLOBAL_UNIT_ASSIGNED_CONTEXT((#356,#358,#359))
REPRESENTATION_CONTEXT('','3D')
);
#355=(
GEOMETRIC_REPRESENTATION_CONTEXT(3)
GLOBAL_UNCERTAINTY_ASSIGNED_CONTEXT((#353))
GLOBAL_UNIT_ASSIGNED_CONTEXT((#356,#358,#359))
REPRESENTATION_CONTEXT('','3D')
);
#356=(
LENGTH_UNIT()
NAMED_UNIT(*)
SI_UNIT(.MILLI.,.METRE.)
);
#357=(
LENGTH_UNIT()
NAMED_UNIT(*)
SI_UNIT(.CENTI.,.METRE.)
);
#358=(
NAMED_UNIT(*)
PLANE_ANGLE_UNIT()
SI_UNIT($,.RADIAN.)
);
#359=(
NAMED_UNIT(*)
SI_UNIT($,.STERADIAN.)
SOLID_ANGLE_UNIT()
);
#360=SHAPE_DEFINITION_REPRESENTATION(#361,#362);
#361=PRODUCT_DEFINITION_SHAPE('',$,#364);
#362=SHAPE_REPRESENTATION('',(#142),#354);
#363=PRODUCT_DEFINITION_CONTEXT('part definition',#368,'design');
#364=PRODUCT_DEFINITION('T-8 40\X\D715','T-8 40\X\D715',#365,#363);
#365=PRODUCT_DEFINITION_FORMATION('',$,#370);
#366=PRODUCT_RELATED_PRODUCT_CATEGORY('T-8 40\X\D715','T-8 40\X\D715',(#370));
#367=APPLICATION_PROTOCOL_DEFINITION('international standard',
'automotive_design',2009,#368);
#368=APPLICATION_CONTEXT(
'Core Data for Automotive Mechanical Design Process');
#369=PRODUCT_CONTEXT('part definition',#368,'mechanical');
#370=PRODUCT('T-8 40\X\D715','T-8 40\X\D715',$,(#369));
#371=PRESENTATION_STYLE_ASSIGNMENT((#372));
#372=SURFACE_STYLE_USAGE(.BOTH.,#375);
#373=SURFACE_STYLE_RENDERING_WITH_PROPERTIES($,#379,(#374));
#374=SURFACE_STYLE_TRANSPARENT(0.);
#375=SURFACE_SIDE_STYLE('',(#376,#373));
#376=SURFACE_STYLE_FILL_AREA(#377);
#377=FILL_AREA_STYLE('',(#378));
#378=FILL_AREA_STYLE_COLOUR('',#379);
#379=COLOUR_RGB('',0.749019607843137,0.749019607843137,0.749019607843137);
ENDSEC;
END-ISO-10303-21;
