ISO-10303-21;
HEADER;
/* Generated by software containing ST-Developer
 * from STEP Tools, Inc. (www.steptools.com) 
 */

FILE_DESCRIPTION(
/* description */ (''),
/* implementation_level */ '2;1');

FILE_NAME(
/* name */ 
'\\\\Tske00\\w\\Work\\TOSTE\\\X2\7D99624B\X0\\\02_\X2\6EB663A5\X0\\\\X2\6EB663A5752830C130FC30BA\X0\\\
T-8\\T-8 40\X\D710.stp',
/* time_stamp */ '2022-04-28T09:40:36+09:00',
/* author */ ('3dcad-eng'),
/* organization */ (''),
/* preprocessor_version */ 'ST-DEVELOPER v18.1',
/* originating_system */ 'Autodesk Inventor 2022',
/* authorisation */ '');

FILE_SCHEMA (('AUTOMOTIVE_DESIGN { 1 0 10303 214 3 1 1 }'));
ENDSEC;

DATA;
#10=MECHANICAL_DESIGN_GEOMETRIC_PRESENTATION_REPRESENTATION('',(#13),#291);
#11=SHAPE_REPRESENTATION_RELATIONSHIP('SRR','None',#298,#12);
#12=ADVANCED_BREP_SHAPE_REPRESENTATION('',(#14),#290);
#13=STYLED_ITEM('',(#307),#14);
#14=MANIFOLD_SOLID_BREP('\X2\30BD30EA30C330C9\X0\1',#123);
#15=PLANE('',#150);
#16=PLANE('',#151);
#17=PLANE('',#155);
#18=FACE_BOUND('',#32,.T.);
#19=FACE_BOUND('',#35,.T.);
#20=FACE_BOUND('',#37,.T.);
#21=FACE_BOUND('',#39,.T.);
#22=FACE_BOUND('',#41,.T.);
#23=FACE_OUTER_BOUND('',#30,.T.);
#24=FACE_OUTER_BOUND('',#31,.T.);
#25=FACE_OUTER_BOUND('',#33,.T.);
#26=FACE_OUTER_BOUND('',#34,.T.);
#27=FACE_OUTER_BOUND('',#36,.T.);
#28=FACE_OUTER_BOUND('',#38,.T.);
#29=FACE_OUTER_BOUND('',#40,.T.);
#30=EDGE_LOOP('',(#84,#85,#86,#87,#88));
#31=EDGE_LOOP('',(#89,#90,#91,#92));
#32=EDGE_LOOP('',(#93,#94));
#33=EDGE_LOOP('',(#95,#96,#97,#98,#99));
#34=EDGE_LOOP('',(#100));
#35=EDGE_LOOP('',(#101));
#36=EDGE_LOOP('',(#102));
#37=EDGE_LOOP('',(#103));
#38=EDGE_LOOP('',(#104,#105,#106,#107));
#39=EDGE_LOOP('',(#108,#109));
#40=EDGE_LOOP('',(#110));
#41=EDGE_LOOP('',(#111));
#42=CIRCLE('',#144,11.5);
#43=CIRCLE('',#146,48.8);
#44=CIRCLE('',#147,48.8);
#45=CIRCLE('',#149,12.7);
#46=CIRCLE('',#152,50.8);
#47=CIRCLE('',#154,50.8);
#48=LINE('',#229,#52);
#49=LINE('',#235,#53);
#50=LINE('',#241,#54);
#51=LINE('',#286,#55);
#52=VECTOR('',#160,11.5);
#53=VECTOR('',#167,48.8);
#54=VECTOR('',#174,12.7);
#55=VECTOR('',#185,50.8);
#56=B_SPLINE_CURVE_WITH_KNOTS('',3,(#192,#193,#194,#195,#196,#197,#198,
#199,#200,#201,#202,#203,#204,#205,#206,#207,#208,#209,#210,#211,#212,#213,
#214,#215,#216,#217),.UNSPECIFIED.,.F.,.F.,(4,2,2,2,2,2,2,2,2,2,2,2,4),
(0.,0.434980247699269,0.869960495398537,1.3048930521199,1.73982560884126,
2.17475816556261,2.60969072228397,3.04467096998324,3.47965121768251,3.91463146538178,
4.34961171308105,4.78454426980241,5.21947682652377),.UNSPECIFIED.);
#57=B_SPLINE_CURVE_WITH_KNOTS('',3,(#218,#219,#220,#221,#222,#223,#224,
#225,#226,#227),.UNSPECIFIED.,.F.,.F.,(4,2,2,2,4),(5.21947682652377,5.65440938324513,
6.08934193996649,6.52432218766575,6.95930243536502),.UNSPECIFIED.);
#58=B_SPLINE_CURVE_WITH_KNOTS('',3,(#243,#244,#245,#246,#247,#248,#249,
#250,#251,#252),.UNSPECIFIED.,.F.,.F.,(4,2,2,2,4),(0.,0.48062925468467,
0.96125850936934,1.44182056352107,1.9223826176728),.UNSPECIFIED.);
#59=B_SPLINE_CURVE_WITH_KNOTS('',3,(#253,#254,#255,#256,#257,#258,#259,
#260,#261,#262,#263,#264,#265,#266,#267,#268,#269,#270,#271,#272,#273,#274,
#275,#276,#277,#278),.UNSPECIFIED.,.F.,.F.,(4,2,2,2,2,2,2,2,2,2,2,2,4),
(1.9223826176728,2.40294467182454,2.88350672597627,3.36413598066094,3.84476523534561,
4.32539449003028,4.80602374471495,5.28658579886668,5.76714785301841,6.24770990717015,
6.72827196132188,7.20890121600655,7.68953047069122),.UNSPECIFIED.);
#60=VERTEX_POINT('',#190);
#61=VERTEX_POINT('',#191);
#62=VERTEX_POINT('',#228);
#63=VERTEX_POINT('',#232);
#64=VERTEX_POINT('',#234);
#65=VERTEX_POINT('',#238);
#66=VERTEX_POINT('',#240);
#67=VERTEX_POINT('',#242);
#68=VERTEX_POINT('',#281);
#69=VERTEX_POINT('',#284);
#70=EDGE_CURVE('',#60,#61,#56,.T.);
#71=EDGE_CURVE('',#61,#60,#57,.T.);
#72=EDGE_CURVE('',#61,#62,#48,.T.);
#73=EDGE_CURVE('',#62,#62,#42,.T.);
#74=EDGE_CURVE('',#63,#63,#43,.T.);
#75=EDGE_CURVE('',#63,#64,#49,.T.);
#76=EDGE_CURVE('',#64,#64,#44,.T.);
#77=EDGE_CURVE('',#65,#65,#45,.T.);
#78=EDGE_CURVE('',#65,#66,#50,.T.);
#79=EDGE_CURVE('',#67,#66,#58,.T.);
#80=EDGE_CURVE('',#66,#67,#59,.T.);
#81=EDGE_CURVE('',#68,#68,#46,.T.);
#82=EDGE_CURVE('',#69,#69,#47,.T.);
#83=EDGE_CURVE('',#69,#68,#51,.T.);
#84=ORIENTED_EDGE('',*,*,#70,.F.);
#85=ORIENTED_EDGE('',*,*,#71,.F.);
#86=ORIENTED_EDGE('',*,*,#72,.T.);
#87=ORIENTED_EDGE('',*,*,#73,.F.);
#88=ORIENTED_EDGE('',*,*,#72,.F.);
#89=ORIENTED_EDGE('',*,*,#74,.F.);
#90=ORIENTED_EDGE('',*,*,#75,.T.);
#91=ORIENTED_EDGE('',*,*,#76,.F.);
#92=ORIENTED_EDGE('',*,*,#75,.F.);
#93=ORIENTED_EDGE('',*,*,#70,.T.);
#94=ORIENTED_EDGE('',*,*,#71,.T.);
#95=ORIENTED_EDGE('',*,*,#77,.F.);
#96=ORIENTED_EDGE('',*,*,#78,.T.);
#97=ORIENTED_EDGE('',*,*,#79,.F.);
#98=ORIENTED_EDGE('',*,*,#80,.F.);
#99=ORIENTED_EDGE('',*,*,#78,.F.);
#100=ORIENTED_EDGE('',*,*,#77,.T.);
#101=ORIENTED_EDGE('',*,*,#73,.T.);
#102=ORIENTED_EDGE('',*,*,#81,.T.);
#103=ORIENTED_EDGE('',*,*,#74,.T.);
#104=ORIENTED_EDGE('',*,*,#82,.F.);
#105=ORIENTED_EDGE('',*,*,#83,.T.);
#106=ORIENTED_EDGE('',*,*,#81,.F.);
#107=ORIENTED_EDGE('',*,*,#83,.F.);
#108=ORIENTED_EDGE('',*,*,#79,.T.);
#109=ORIENTED_EDGE('',*,*,#80,.T.);
#110=ORIENTED_EDGE('',*,*,#82,.T.);
#111=ORIENTED_EDGE('',*,*,#76,.T.);
#112=CYLINDRICAL_SURFACE('',#143,11.5);
#113=CYLINDRICAL_SURFACE('',#145,48.8);
#114=CYLINDRICAL_SURFACE('',#148,12.7);
#115=CYLINDRICAL_SURFACE('',#153,50.8);
#116=ADVANCED_FACE('',(#23),#112,.F.);
#117=ADVANCED_FACE('',(#24,#18),#113,.F.);
#118=ADVANCED_FACE('',(#25),#114,.T.);
#119=ADVANCED_FACE('',(#26,#19),#15,.T.);
#120=ADVANCED_FACE('',(#27,#20),#16,.F.);
#121=ADVANCED_FACE('',(#28,#21),#115,.T.);
#122=ADVANCED_FACE('',(#29,#22),#17,.T.);
#123=CLOSED_SHELL('',(#116,#117,#118,#119,#120,#121,#122));
#124=DERIVED_UNIT_ELEMENT(#126,1.);
#125=DERIVED_UNIT_ELEMENT(#293,-3.);
#126=(
MASS_UNIT()
NAMED_UNIT(*)
SI_UNIT($,.GRAM.)
);
#127=DERIVED_UNIT((#124,#125));
#128=MEASURE_REPRESENTATION_ITEM('density measure',
POSITIVE_RATIO_MEASURE(1.),#127);
#129=PROPERTY_DEFINITION_REPRESENTATION(#134,#131);
#130=PROPERTY_DEFINITION_REPRESENTATION(#135,#132);
#131=REPRESENTATION('material name',(#133),#290);
#132=REPRESENTATION('density',(#128),#290);
#133=DESCRIPTIVE_REPRESENTATION_ITEM('\X2\4E00822C\X0\','\X2\4E00822C\X0\');
#134=PROPERTY_DEFINITION('material property','material name',#300);
#135=PROPERTY_DEFINITION('material property','density of part',#300);
#136=DATE_TIME_ROLE('creation_date');
#137=APPLIED_DATE_AND_TIME_ASSIGNMENT(#138,#136,(#300));
#138=DATE_AND_TIME(#139,#140);
#139=CALENDAR_DATE(2022,31,3);
#140=LOCAL_TIME(0,0,0.,#141);
#141=COORDINATED_UNIVERSAL_TIME_OFFSET(0,0,.BEHIND.);
#142=AXIS2_PLACEMENT_3D('placement',#188,#156,#157);
#143=AXIS2_PLACEMENT_3D('',#189,#158,#159);
#144=AXIS2_PLACEMENT_3D('',#230,#161,#162);
#145=AXIS2_PLACEMENT_3D('',#231,#163,#164);
#146=AXIS2_PLACEMENT_3D('',#233,#165,#166);
#147=AXIS2_PLACEMENT_3D('',#236,#168,#169);
#148=AXIS2_PLACEMENT_3D('',#237,#170,#171);
#149=AXIS2_PLACEMENT_3D('',#239,#172,#173);
#150=AXIS2_PLACEMENT_3D('',#279,#175,#176);
#151=AXIS2_PLACEMENT_3D('',#280,#177,#178);
#152=AXIS2_PLACEMENT_3D('',#282,#179,#180);
#153=AXIS2_PLACEMENT_3D('',#283,#181,#182);
#154=AXIS2_PLACEMENT_3D('',#285,#183,#184);
#155=AXIS2_PLACEMENT_3D('',#287,#186,#187);
#156=DIRECTION('axis',(0.,0.,1.));
#157=DIRECTION('refdir',(1.,0.,0.));
#158=DIRECTION('center_axis',(0.,0.,1.));
#159=DIRECTION('ref_axis',(1.,0.,0.));
#160=DIRECTION('',(0.,0.,1.));
#161=DIRECTION('center_axis',(0.,0.,-1.));
#162=DIRECTION('ref_axis',(1.,0.,0.));
#163=DIRECTION('center_axis',(1.,0.,0.));
#164=DIRECTION('ref_axis',(0.,1.,0.));
#165=DIRECTION('center_axis',(1.,0.,0.));
#166=DIRECTION('ref_axis',(0.,1.,0.));
#167=DIRECTION('',(1.,0.,0.));
#168=DIRECTION('center_axis',(-1.,0.,0.));
#169=DIRECTION('ref_axis',(0.,1.,0.));
#170=DIRECTION('center_axis',(0.,0.,1.));
#171=DIRECTION('ref_axis',(1.,0.,0.));
#172=DIRECTION('center_axis',(0.,0.,1.));
#173=DIRECTION('ref_axis',(1.,0.,0.));
#174=DIRECTION('',(0.,0.,-1.));
#175=DIRECTION('center_axis',(0.,0.,1.));
#176=DIRECTION('ref_axis',(1.,0.,0.));
#177=DIRECTION('center_axis',(1.,0.,0.));
#178=DIRECTION('ref_axis',(0.,0.,-1.));
#179=DIRECTION('center_axis',(-1.,0.,0.));
#180=DIRECTION('ref_axis',(0.,1.,0.));
#181=DIRECTION('center_axis',(1.,0.,0.));
#182=DIRECTION('ref_axis',(0.,1.,0.));
#183=DIRECTION('center_axis',(1.,0.,0.));
#184=DIRECTION('ref_axis',(0.,1.,0.));
#185=DIRECTION('',(-1.,0.,0.));
#186=DIRECTION('center_axis',(1.,0.,0.));
#187=DIRECTION('ref_axis',(0.,0.,-1.));
#188=CARTESIAN_POINT('',(0.,0.,0.));
#189=CARTESIAN_POINT('Origin',(0.,0.,0.));
#190=CARTESIAN_POINT('',(2.77555756156289E-16,-11.5,47.4256259842714));
#191=CARTESIAN_POINT('',(-11.5,-1.02825191190051E-17,48.8));
#192=CARTESIAN_POINT('Ctrl Pts',(-8.32667268468867E-16,-11.5,47.4256259842714));
#193=CARTESIAN_POINT('Ctrl Pts',(1.44993415899756,-11.5,47.4256259842714));
#194=CARTESIAN_POINT('Ctrl Pts',(2.99260915655677,-11.2091100159504,47.4990351810536));
#195=CARTESIAN_POINT('Ctrl Pts',(5.82425044812347,-10.033841443566,47.7611192030785));
#196=CARTESIAN_POINT('Ctrl Pts',(7.11371252925162,-9.14974343803897,47.9456791444037));
#197=CARTESIAN_POINT('Ctrl Pts',(9.14963182342474,-7.11382414386585,48.2897424503585));
#198=CARTESIAN_POINT('Ctrl Pts',(10.0338169888335,-5.82431529465905,48.4720396496284));
#199=CARTESIAN_POINT('Ctrl Pts',(11.2091490468963,-2.9925091906549,48.7289048210668));
#200=CARTESIAN_POINT('Ctrl Pts',(11.5,-1.4497751890712,48.8));
#201=CARTESIAN_POINT('Ctrl Pts',(11.5,1.4497751890712,48.8));
#202=CARTESIAN_POINT('Ctrl Pts',(11.2091490468963,2.9925091906549,48.7289048210668));
#203=CARTESIAN_POINT('Ctrl Pts',(10.0338169888334,5.82431529465905,48.4720396496284));
#204=CARTESIAN_POINT('Ctrl Pts',(9.14963182342474,7.11382414386585,48.2897424503585));
#205=CARTESIAN_POINT('Ctrl Pts',(7.11371252925162,9.14974343803897,47.9456791444037));
#206=CARTESIAN_POINT('Ctrl Pts',(5.82425044812347,10.033841443566,47.7611192030785));
#207=CARTESIAN_POINT('Ctrl Pts',(2.99260915655677,11.2091100159504,47.4990351810536));
#208=CARTESIAN_POINT('Ctrl Pts',(1.44993415899756,11.5,47.4256259842714));
#209=CARTESIAN_POINT('Ctrl Pts',(-1.44993415899756,11.5,47.4256259842714));
#210=CARTESIAN_POINT('Ctrl Pts',(-2.99260915655677,11.2091100159504,47.4990351810536));
#211=CARTESIAN_POINT('Ctrl Pts',(-5.82425044812347,10.033841443566,47.7611192030785));
#212=CARTESIAN_POINT('Ctrl Pts',(-7.11371252925162,9.14974343803897,47.9456791444037));
#213=CARTESIAN_POINT('Ctrl Pts',(-9.14963182342474,7.11382414386585,48.2897424503585));
#214=CARTESIAN_POINT('Ctrl Pts',(-10.0338169888335,5.82431529465905,48.4720396496284));
#215=CARTESIAN_POINT('Ctrl Pts',(-11.2091490468963,2.9925091906549,48.7289048210668));
#216=CARTESIAN_POINT('Ctrl Pts',(-11.5,1.4497751890712,48.8));
#217=CARTESIAN_POINT('Ctrl Pts',(-11.5,2.4980018054066E-15,48.8));
#218=CARTESIAN_POINT('Ctrl Pts',(-11.5,1.38777878078145E-15,48.8));
#219=CARTESIAN_POINT('Ctrl Pts',(-11.5,-1.44977518907119,48.8));
#220=CARTESIAN_POINT('Ctrl Pts',(-11.2091490468963,-2.99250919065489,48.7289048210668));
#221=CARTESIAN_POINT('Ctrl Pts',(-10.0338169888335,-5.82431529465905,48.4720396496284));
#222=CARTESIAN_POINT('Ctrl Pts',(-9.14963182342474,-7.11382414386585,48.2897424503585));
#223=CARTESIAN_POINT('Ctrl Pts',(-7.11371252925162,-9.14974343803897,47.9456791444037));
#224=CARTESIAN_POINT('Ctrl Pts',(-5.82425044812347,-10.033841443566,47.7611192030785));
#225=CARTESIAN_POINT('Ctrl Pts',(-2.99260915655677,-11.2091100159504,47.4990351810536));
#226=CARTESIAN_POINT('Ctrl Pts',(-1.44993415899756,-11.5,47.4256259842714));
#227=CARTESIAN_POINT('Ctrl Pts',(5.55111512312578E-16,-11.5,47.4256259842714));
#228=CARTESIAN_POINT('',(-11.5,1.40834381901946E-15,55.2));
#229=CARTESIAN_POINT('',(-11.5,-1.40834381901946E-15,0.));
#230=CARTESIAN_POINT('Origin',(0.,0.,55.2));
#231=CARTESIAN_POINT('Origin',(0.,0.,0.));
#232=CARTESIAN_POINT('',(-133.4,-48.8,-5.97627637983908E-15));
#233=CARTESIAN_POINT('Origin',(-133.4,0.,0.));
#234=CARTESIAN_POINT('',(133.4,-48.8,5.97627637983908E-15));
#235=CARTESIAN_POINT('',(0.,-48.8,-5.97627637983908E-15));
#236=CARTESIAN_POINT('Origin',(133.4,0.,0.));
#237=CARTESIAN_POINT('Origin',(0.,0.,0.));
#238=CARTESIAN_POINT('',(-12.7,-1.55530143491714E-15,55.2));
#239=CARTESIAN_POINT('Origin',(0.,0.,55.2));
#240=CARTESIAN_POINT('',(-12.7,-1.61031798592744E-15,50.8));
#241=CARTESIAN_POINT('',(-12.7,-1.55530143491714E-15,0.));
#242=CARTESIAN_POINT('',(0.,-12.7,49.1868884968342));
#243=CARTESIAN_POINT('Ctrl Pts',(0.,-12.7,49.1868884968342));
#244=CARTESIAN_POINT('Ctrl Pts',(-1.60209751561557,-12.7,49.1868884968342));
#245=CARTESIAN_POINT('Ctrl Pts',(-3.30608569173335,-12.3784239869424,49.2733156601419));
#246=CARTESIAN_POINT('Ctrl Pts',(-6.4329396998865,-11.0802926109749,49.5813686779241));
#247=CARTESIAN_POINT('Ctrl Pts',(-7.85642897275041,-10.1040832693879,49.7981046855753));
#248=CARTESIAN_POINT('Ctrl Pts',(-10.1039261383299,-7.85658610380842,50.2017670928035));
#249=CARTESIAN_POINT('Ctrl Pts',(-11.0802579932023,-6.43303138844596,50.4155079801028));
#250=CARTESIAN_POINT('Ctrl Pts',(-12.3784788120817,-3.3059453288695,50.7166448324404));
#251=CARTESIAN_POINT('Ctrl Pts',(-12.7,-1.60187351383911,50.8));
#252=CARTESIAN_POINT('Ctrl Pts',(-12.7,-1.94289029309402E-15,50.8));
#253=CARTESIAN_POINT('Ctrl Pts',(-12.7,-1.66533453693773E-15,50.8));
#254=CARTESIAN_POINT('Ctrl Pts',(-12.7,1.60187351383911,50.8));
#255=CARTESIAN_POINT('Ctrl Pts',(-12.3784788120817,3.30594532886949,50.7166448324404));
#256=CARTESIAN_POINT('Ctrl Pts',(-11.0802579932023,6.43303138844596,50.4155079801028));
#257=CARTESIAN_POINT('Ctrl Pts',(-10.1039261383299,7.85658610380842,50.2017670928035));
#258=CARTESIAN_POINT('Ctrl Pts',(-7.85642897275041,10.1040832693879,49.7981046855753));
#259=CARTESIAN_POINT('Ctrl Pts',(-6.4329396998865,11.0802926109749,49.5813686779241));
#260=CARTESIAN_POINT('Ctrl Pts',(-3.30608569173335,12.3784239869424,49.2733156601419));
#261=CARTESIAN_POINT('Ctrl Pts',(-1.60209751561557,12.7,49.1868884968342));
#262=CARTESIAN_POINT('Ctrl Pts',(1.60209751561557,12.7,49.1868884968342));
#263=CARTESIAN_POINT('Ctrl Pts',(3.30608569173335,12.3784239869424,49.2733156601419));
#264=CARTESIAN_POINT('Ctrl Pts',(6.4329396998865,11.0802926109749,49.5813686779241));
#265=CARTESIAN_POINT('Ctrl Pts',(7.85642897275041,10.1040832693879,49.7981046855753));
#266=CARTESIAN_POINT('Ctrl Pts',(10.1039261383299,7.85658610380842,50.2017670928035));
#267=CARTESIAN_POINT('Ctrl Pts',(11.0802579932023,6.43303138844596,50.4155079801028));
#268=CARTESIAN_POINT('Ctrl Pts',(12.3784788120817,3.3059453288695,50.7166448324404));
#269=CARTESIAN_POINT('Ctrl Pts',(12.7,1.60187351383911,50.8));
#270=CARTESIAN_POINT('Ctrl Pts',(12.7,-1.6018735138391,50.8));
#271=CARTESIAN_POINT('Ctrl Pts',(12.3784788120817,-3.30594532886949,50.7166448324404));
#272=CARTESIAN_POINT('Ctrl Pts',(11.0802579932024,-6.43303138844595,50.4155079801028));
#273=CARTESIAN_POINT('Ctrl Pts',(10.1039261383299,-7.85658610380841,50.2017670928035));
#274=CARTESIAN_POINT('Ctrl Pts',(7.85642897275041,-10.1040832693879,49.7981046855753));
#275=CARTESIAN_POINT('Ctrl Pts',(6.4329396998865,-11.0802926109749,49.5813686779241));
#276=CARTESIAN_POINT('Ctrl Pts',(3.30608569173335,-12.3784239869424,49.2733156601419));
#277=CARTESIAN_POINT('Ctrl Pts',(1.60209751561557,-12.7,49.1868884968342));
#278=CARTESIAN_POINT('Ctrl Pts',(-8.32667268468867E-16,-12.7,49.1868884968342));
#279=CARTESIAN_POINT('Origin',(0.,0.,55.2));
#280=CARTESIAN_POINT('Origin',(-133.4,0.,0.));
#281=CARTESIAN_POINT('',(-133.4,-50.8,-6.22120573966855E-15));
#282=CARTESIAN_POINT('Origin',(-133.4,0.,0.));
#283=CARTESIAN_POINT('Origin',(0.,0.,0.));
#284=CARTESIAN_POINT('',(133.4,-50.8,-6.22120573966855E-15));
#285=CARTESIAN_POINT('Origin',(133.4,0.,0.));
#286=CARTESIAN_POINT('',(0.,-50.8,-6.22120573966855E-15));
#287=CARTESIAN_POINT('Origin',(133.4,0.,0.));
#288=UNCERTAINTY_MEASURE_WITH_UNIT(LENGTH_MEASURE(0.01),#292,
'DISTANCE_ACCURACY_VALUE',
'Maximum model space distance between geometric entities at asserted c
onnectivities');
#289=UNCERTAINTY_MEASURE_WITH_UNIT(LENGTH_MEASURE(0.01),#292,
'DISTANCE_ACCURACY_VALUE',
'Maximum model space distance between geometric entities at asserted c
onnectivities');
#290=(
GEOMETRIC_REPRESENTATION_CONTEXT(3)
GLOBAL_UNCERTAINTY_ASSIGNED_CONTEXT((#288))
GLOBAL_UNIT_ASSIGNED_CONTEXT((#292,#294,#295))
REPRESENTATION_CONTEXT('','3D')
);
#291=(
GEOMETRIC_REPRESENTATION_CONTEXT(3)
GLOBAL_UNCERTAINTY_ASSIGNED_CONTEXT((#289))
GLOBAL_UNIT_ASSIGNED_CONTEXT((#292,#294,#295))
REPRESENTATION_CONTEXT('','3D')
);
#292=(
LENGTH_UNIT()
NAMED_UNIT(*)
SI_UNIT(.MILLI.,.METRE.)
);
#293=(
LENGTH_UNIT()
NAMED_UNIT(*)
SI_UNIT(.CENTI.,.METRE.)
);
#294=(
NAMED_UNIT(*)
PLANE_ANGLE_UNIT()
SI_UNIT($,.RADIAN.)
);
#295=(
NAMED_UNIT(*)
SI_UNIT($,.STERADIAN.)
SOLID_ANGLE_UNIT()
);
#296=SHAPE_DEFINITION_REPRESENTATION(#297,#298);
#297=PRODUCT_DEFINITION_SHAPE('',$,#300);
#298=SHAPE_REPRESENTATION('',(#142),#290);
#299=PRODUCT_DEFINITION_CONTEXT('part definition',#304,'design');
#300=PRODUCT_DEFINITION('T-8 40\X\D710','T-8 40\X\D710',#301,#299);
#301=PRODUCT_DEFINITION_FORMATION('',$,#306);
#302=PRODUCT_RELATED_PRODUCT_CATEGORY('T-8 40\X\D710','T-8 40\X\D710',(#306));
#303=APPLICATION_PROTOCOL_DEFINITION('international standard',
'automotive_design',2009,#304);
#304=APPLICATION_CONTEXT(
'Core Data for Automotive Mechanical Design Process');
#305=PRODUCT_CONTEXT('part definition',#304,'mechanical');
#306=PRODUCT('T-8 40\X\D710','T-8 40\X\D710',$,(#305));
#307=PRESENTATION_STYLE_ASSIGNMENT((#308));
#308=SURFACE_STYLE_USAGE(.BOTH.,#311);
#309=SURFACE_STYLE_RENDERING_WITH_PROPERTIES($,#315,(#310));
#310=SURFACE_STYLE_TRANSPARENT(0.);
#311=SURFACE_SIDE_STYLE('',(#312,#309));
#312=SURFACE_STYLE_FILL_AREA(#313);
#313=FILL_AREA_STYLE('',(#314));
#314=FILL_AREA_STYLE_COLOUR('',#315);
#315=COLOUR_RGB('',0.749019607843137,0.749019607843137,0.749019607843137);
ENDSEC;
END-ISO-10303-21;
