ISO-10303-21;
HEADER;
/* Generated by software containing ST-Developer
 * from STEP Tools, Inc. (www.steptools.com) 
 */

FILE_DESCRIPTION(
/* description */ (''),
/* implementation_level */ '2;1');

FILE_NAME(
/* name */ 
'\\\\Tske00\\w\\Work\\TOSTE\\\X2\7D99624B\X0\\\02_\X2\6EB663A5\X0\\\\X2\6EB663A5752830C130FC30BA\X0\\\
T-8\\T-8 35\X\D720.stp',
/* time_stamp */ '2022-04-28T09:37:18+09:00',
/* author */ ('3dcad-eng'),
/* organization */ (''),
/* preprocessor_version */ 'ST-DEVELOPER v18.1',
/* originating_system */ 'Autodesk Inventor 2022',
/* authorisation */ '');

FILE_SCHEMA (('AUTOMOTIVE_DESIGN { 1 0 10303 214 3 1 1 }'));
ENDSEC;

DATA;
#10=MECHANICAL_DESIGN_GEOMETRIC_PRESENTATION_REPRESENTATION('',(#13),#355);
#11=SHAPE_REPRESENTATION_RELATIONSHIP('SRR','None',#362,#12);
#12=ADVANCED_BREP_SHAPE_REPRESENTATION('',(#14),#354);
#13=STYLED_ITEM('',(#371),#14);
#14=MANIFOLD_SOLID_BREP('\X2\30BD30EA30C330C9\X0\1',#123);
#15=PLANE('',#150);
#16=PLANE('',#151);
#17=PLANE('',#155);
#18=FACE_BOUND('',#32,.T.);
#19=FACE_BOUND('',#35,.T.);
#20=FACE_BOUND('',#37,.T.);
#21=FACE_BOUND('',#39,.T.);
#22=FACE_BOUND('',#41,.T.);
#23=FACE_OUTER_BOUND('',#30,.T.);
#24=FACE_OUTER_BOUND('',#31,.T.);
#25=FACE_OUTER_BOUND('',#33,.T.);
#26=FACE_OUTER_BOUND('',#34,.T.);
#27=FACE_OUTER_BOUND('',#36,.T.);
#28=FACE_OUTER_BOUND('',#38,.T.);
#29=FACE_OUTER_BOUND('',#40,.T.);
#30=EDGE_LOOP('',(#84,#85,#86,#87,#88));
#31=EDGE_LOOP('',(#89,#90,#91,#92));
#32=EDGE_LOOP('',(#93,#94));
#33=EDGE_LOOP('',(#95,#96,#97,#98,#99));
#34=EDGE_LOOP('',(#100));
#35=EDGE_LOOP('',(#101));
#36=EDGE_LOOP('',(#102));
#37=EDGE_LOOP('',(#103));
#38=EDGE_LOOP('',(#104,#105,#106,#107));
#39=EDGE_LOOP('',(#108,#109));
#40=EDGE_LOOP('',(#110));
#41=EDGE_LOOP('',(#111));
#42=CIRCLE('',#144,23.9);
#43=CIRCLE('',#146,42.55);
#44=CIRCLE('',#147,42.55);
#45=CIRCLE('',#149,25.4);
#46=CIRCLE('',#152,44.55);
#47=CIRCLE('',#154,44.55);
#48=LINE('',#261,#52);
#49=LINE('',#267,#53);
#50=LINE('',#273,#54);
#51=LINE('',#350,#55);
#52=VECTOR('',#160,23.9);
#53=VECTOR('',#167,42.55);
#54=VECTOR('',#174,25.4);
#55=VECTOR('',#185,44.55);
#56=B_SPLINE_CURVE_WITH_KNOTS('',3,(#192,#193,#194,#195,#196,#197,#198,
#199,#200,#201,#202,#203,#204,#205,#206,#207,#208,#209,#210,#211,#212,#213,
#214,#215,#216,#217,#218,#219,#220,#221,#222,#223,#224,#225,#226,#227,#228,
#229,#230,#231,#232,#233,#234,#235,#236,#237,#238,#239,#240,#241),
 .UNSPECIFIED.,.F.,.F.,(4,2,2,2,2,2,2,2,2,2,2,2,2,2,2,2,2,2,2,2,2,2,2,2,
4),(0.,0.463339931845913,0.926679863691825,1.39001979553774,1.85335972738365,
2.31452691437558,2.77569410136751,3.23686128835945,3.69802847535138,4.15919566234331,
4.62036284933524,5.08153003632717,5.54269722331911,6.00603715516502,6.46937708701093,
6.93271701885684,7.39605695070276,7.85939688254867,8.32273681439458,8.78607674624049,
9.24941667808641,9.71058386507834,10.1717510520703,10.6329182390622,11.0940854260541),
 .UNSPECIFIED.);
#57=B_SPLINE_CURVE_WITH_KNOTS('',3,(#242,#243,#244,#245,#246,#247,#248,
#249,#250,#251,#252,#253,#254,#255,#256,#257,#258,#259),.UNSPECIFIED.,.F.,
 .F.,(4,2,2,2,2,2,2,2,4),(11.0940854260541,11.5552526130461,12.016419800038,
12.4775869870299,12.9387541740219,13.4020941058678,13.8654340377137,14.3287739695596,
14.7921139014055),.UNSPECIFIED.);
#58=B_SPLINE_CURVE_WITH_KNOTS('',3,(#275,#276,#277,#278,#279,#280,#281,
#282,#283,#284,#285,#286,#287,#288,#289,#290,#291,#292),.UNSPECIFIED.,.F.,
 .F.,(4,2,2,2,2,2,2,2,4),(0.,0.492981936818949,0.985963873637897,1.47894581045685,
1.97192774727579,2.46242679615029,2.95292584502479,3.44342489389929,3.93392394277379),
 .UNSPECIFIED.);
#59=B_SPLINE_CURVE_WITH_KNOTS('',3,(#293,#294,#295,#296,#297,#298,#299,
#300,#301,#302,#303,#304,#305,#306,#307,#308,#309,#310,#311,#312,#313,#314,
#315,#316,#317,#318,#319,#320,#321,#322,#323,#324,#325,#326,#327,#328,#329,
#330,#331,#332,#333,#334,#335,#336,#337,#338,#339,#340,#341,#342),
 .UNSPECIFIED.,.F.,.F.,(4,2,2,2,2,2,2,2,2,2,2,2,2,2,2,2,2,2,2,2,2,2,2,2,
4),(3.93392394277379,4.42442299164828,4.91492204052278,5.40542108939728,
5.89592013827178,6.38890207509073,6.88188401190967,7.37486594872862,7.86784788554757,
8.36082982236652,8.85381175918547,9.34679369600442,9.83977563282336,10.3302746816979,
10.8207737305724,11.3112727794469,11.8017718283214,12.2922708771959,12.7827699260704,
13.2732689749448,13.7637680238193,14.2567499606383,14.7497318974572,15.2427138342762,
15.7356957710951),.UNSPECIFIED.);
#60=VERTEX_POINT('',#190);
#61=VERTEX_POINT('',#191);
#62=VERTEX_POINT('',#260);
#63=VERTEX_POINT('',#264);
#64=VERTEX_POINT('',#266);
#65=VERTEX_POINT('',#270);
#66=VERTEX_POINT('',#272);
#67=VERTEX_POINT('',#274);
#68=VERTEX_POINT('',#345);
#69=VERTEX_POINT('',#348);
#70=EDGE_CURVE('',#60,#61,#56,.T.);
#71=EDGE_CURVE('',#61,#60,#57,.T.);
#72=EDGE_CURVE('',#61,#62,#48,.T.);
#73=EDGE_CURVE('',#62,#62,#42,.T.);
#74=EDGE_CURVE('',#63,#63,#43,.T.);
#75=EDGE_CURVE('',#63,#64,#49,.T.);
#76=EDGE_CURVE('',#64,#64,#44,.T.);
#77=EDGE_CURVE('',#65,#65,#45,.T.);
#78=EDGE_CURVE('',#65,#66,#50,.T.);
#79=EDGE_CURVE('',#67,#66,#58,.T.);
#80=EDGE_CURVE('',#66,#67,#59,.T.);
#81=EDGE_CURVE('',#68,#68,#46,.T.);
#82=EDGE_CURVE('',#69,#69,#47,.T.);
#83=EDGE_CURVE('',#69,#68,#51,.T.);
#84=ORIENTED_EDGE('',*,*,#70,.F.);
#85=ORIENTED_EDGE('',*,*,#71,.F.);
#86=ORIENTED_EDGE('',*,*,#72,.T.);
#87=ORIENTED_EDGE('',*,*,#73,.F.);
#88=ORIENTED_EDGE('',*,*,#72,.F.);
#89=ORIENTED_EDGE('',*,*,#74,.F.);
#90=ORIENTED_EDGE('',*,*,#75,.T.);
#91=ORIENTED_EDGE('',*,*,#76,.F.);
#92=ORIENTED_EDGE('',*,*,#75,.F.);
#93=ORIENTED_EDGE('',*,*,#70,.T.);
#94=ORIENTED_EDGE('',*,*,#71,.T.);
#95=ORIENTED_EDGE('',*,*,#77,.F.);
#96=ORIENTED_EDGE('',*,*,#78,.T.);
#97=ORIENTED_EDGE('',*,*,#79,.F.);
#98=ORIENTED_EDGE('',*,*,#80,.F.);
#99=ORIENTED_EDGE('',*,*,#78,.F.);
#100=ORIENTED_EDGE('',*,*,#77,.T.);
#101=ORIENTED_EDGE('',*,*,#73,.T.);
#102=ORIENTED_EDGE('',*,*,#81,.T.);
#103=ORIENTED_EDGE('',*,*,#74,.T.);
#104=ORIENTED_EDGE('',*,*,#82,.F.);
#105=ORIENTED_EDGE('',*,*,#83,.T.);
#106=ORIENTED_EDGE('',*,*,#81,.F.);
#107=ORIENTED_EDGE('',*,*,#83,.F.);
#108=ORIENTED_EDGE('',*,*,#79,.T.);
#109=ORIENTED_EDGE('',*,*,#80,.T.);
#110=ORIENTED_EDGE('',*,*,#82,.T.);
#111=ORIENTED_EDGE('',*,*,#76,.T.);
#112=CYLINDRICAL_SURFACE('',#143,23.9);
#113=CYLINDRICAL_SURFACE('',#145,42.55);
#114=CYLINDRICAL_SURFACE('',#148,25.4);
#115=CYLINDRICAL_SURFACE('',#153,44.55);
#116=ADVANCED_FACE('',(#23),#112,.F.);
#117=ADVANCED_FACE('',(#24,#18),#113,.F.);
#118=ADVANCED_FACE('',(#25),#114,.T.);
#119=ADVANCED_FACE('',(#26,#19),#15,.T.);
#120=ADVANCED_FACE('',(#27,#20),#16,.F.);
#121=ADVANCED_FACE('',(#28,#21),#115,.T.);
#122=ADVANCED_FACE('',(#29,#22),#17,.T.);
#123=CLOSED_SHELL('',(#116,#117,#118,#119,#120,#121,#122));
#124=DERIVED_UNIT_ELEMENT(#126,1.);
#125=DERIVED_UNIT_ELEMENT(#357,-3.);
#126=(
MASS_UNIT()
NAMED_UNIT(*)
SI_UNIT($,.GRAM.)
);
#127=DERIVED_UNIT((#124,#125));
#128=MEASURE_REPRESENTATION_ITEM('density measure',
POSITIVE_RATIO_MEASURE(1.),#127);
#129=PROPERTY_DEFINITION_REPRESENTATION(#134,#131);
#130=PROPERTY_DEFINITION_REPRESENTATION(#135,#132);
#131=REPRESENTATION('material name',(#133),#354);
#132=REPRESENTATION('density',(#128),#354);
#133=DESCRIPTIVE_REPRESENTATION_ITEM('\X2\4E00822C\X0\','\X2\4E00822C\X0\');
#134=PROPERTY_DEFINITION('material property','material name',#364);
#135=PROPERTY_DEFINITION('material property','density of part',#364);
#136=DATE_TIME_ROLE('creation_date');
#137=APPLIED_DATE_AND_TIME_ASSIGNMENT(#138,#136,(#364));
#138=DATE_AND_TIME(#139,#140);
#139=CALENDAR_DATE(2022,31,3);
#140=LOCAL_TIME(0,0,0.,#141);
#141=COORDINATED_UNIVERSAL_TIME_OFFSET(0,0,.BEHIND.);
#142=AXIS2_PLACEMENT_3D('placement',#188,#156,#157);
#143=AXIS2_PLACEMENT_3D('',#189,#158,#159);
#144=AXIS2_PLACEMENT_3D('',#262,#161,#162);
#145=AXIS2_PLACEMENT_3D('',#263,#163,#164);
#146=AXIS2_PLACEMENT_3D('',#265,#165,#166);
#147=AXIS2_PLACEMENT_3D('',#268,#168,#169);
#148=AXIS2_PLACEMENT_3D('',#269,#170,#171);
#149=AXIS2_PLACEMENT_3D('',#271,#172,#173);
#150=AXIS2_PLACEMENT_3D('',#343,#175,#176);
#151=AXIS2_PLACEMENT_3D('',#344,#177,#178);
#152=AXIS2_PLACEMENT_3D('',#346,#179,#180);
#153=AXIS2_PLACEMENT_3D('',#347,#181,#182);
#154=AXIS2_PLACEMENT_3D('',#349,#183,#184);
#155=AXIS2_PLACEMENT_3D('',#351,#186,#187);
#156=DIRECTION('axis',(0.,0.,1.));
#157=DIRECTION('refdir',(1.,0.,0.));
#158=DIRECTION('center_axis',(0.,0.,1.));
#159=DIRECTION('ref_axis',(1.,0.,0.));
#160=DIRECTION('',(0.,0.,1.));
#161=DIRECTION('center_axis',(0.,0.,-1.));
#162=DIRECTION('ref_axis',(1.,0.,0.));
#163=DIRECTION('center_axis',(1.,0.,0.));
#164=DIRECTION('ref_axis',(0.,1.,0.));
#165=DIRECTION('center_axis',(1.,0.,0.));
#166=DIRECTION('ref_axis',(0.,1.,0.));
#167=DIRECTION('',(1.,0.,0.));
#168=DIRECTION('center_axis',(-1.,0.,0.));
#169=DIRECTION('ref_axis',(0.,1.,0.));
#170=DIRECTION('center_axis',(0.,0.,1.));
#171=DIRECTION('ref_axis',(1.,0.,0.));
#172=DIRECTION('center_axis',(0.,0.,1.));
#173=DIRECTION('ref_axis',(1.,0.,0.));
#174=DIRECTION('',(0.,0.,-1.));
#175=DIRECTION('center_axis',(0.,0.,1.));
#176=DIRECTION('ref_axis',(1.,0.,0.));
#177=DIRECTION('center_axis',(1.,0.,0.));
#178=DIRECTION('ref_axis',(0.,0.,-1.));
#179=DIRECTION('center_axis',(-1.,0.,0.));
#180=DIRECTION('ref_axis',(0.,1.,0.));
#181=DIRECTION('center_axis',(1.,0.,0.));
#182=DIRECTION('ref_axis',(0.,1.,0.));
#183=DIRECTION('center_axis',(1.,0.,0.));
#184=DIRECTION('ref_axis',(0.,1.,0.));
#185=DIRECTION('',(-1.,0.,0.));
#186=DIRECTION('center_axis',(1.,0.,0.));
#187=DIRECTION('ref_axis',(0.,0.,-1.));
#188=CARTESIAN_POINT('',(0.,0.,0.));
#189=CARTESIAN_POINT('Origin',(0.,0.,0.));
#190=CARTESIAN_POINT('',(2.77555756156289E-16,-23.9,35.203586465018));
#191=CARTESIAN_POINT('',(-23.9,-3.53229900355931E-16,42.55));
#192=CARTESIAN_POINT('Ctrl Pts',(2.77555756156289E-16,-23.9,35.203586465018));
#193=CARTESIAN_POINT('Ctrl Pts',(1.54446643948638,-23.9,35.203586465018));
#194=CARTESIAN_POINT('Ctrl Pts',(3.12559550906735,-23.7480019941592,35.3082745680149));
#195=CARTESIAN_POINT('Ctrl Pts',(6.24320439791464,-23.1248642325069,35.719497547525));
#196=CARTESIAN_POINT('Ctrl Pts',(7.77985685398683,-22.6540227534629,36.0251750790107));
#197=CARTESIAN_POINT('Ctrl Pts',(10.7082417721237,-21.4257935936312,36.7689166511144));
#198=CARTESIAN_POINT('Ctrl Pts',(12.102943038486,-20.6674170595324,37.2065468497366));
#199=CARTESIAN_POINT('Ctrl Pts',(14.6765618204848,-18.9267506865935,38.1214816688144));
#200=CARTESIAN_POINT('Ctrl Pts',(15.8555531242343,-17.9441510164827,38.5979890744516));
#201=CARTESIAN_POINT('Ctrl Pts',(17.9392539743647,-15.8604501663523,39.4997635650578));
#202=CARTESIAN_POINT('Ctrl Pts',(18.9210919010296,-14.6839474009375,39.9590218954558));
#203=CARTESIAN_POINT('Ctrl Pts',(20.6636295435615,-12.1095187457582,40.8130040284114));
#204=CARTESIAN_POINT('Ctrl Pts',(21.4244596122787,-10.7114834817889,41.2071320142613));
#205=CARTESIAN_POINT('Ctrl Pts',(22.6556523097037,-7.77591041095675,41.860468571373));
#206=CARTESIAN_POINT('Ctrl Pts',(23.1270052144661,-6.23546010387785,42.1198740871377));
#207=CARTESIAN_POINT('Ctrl Pts',(23.7492933712497,-3.1161510355365,42.4647425349005));
#208=CARTESIAN_POINT('Ctrl Pts',(23.9,-1.53722395663977,42.55));
#209=CARTESIAN_POINT('Ctrl Pts',(23.9,1.53722395663977,42.55));
#210=CARTESIAN_POINT('Ctrl Pts',(23.7492933712497,3.11615103553651,42.4647425349005));
#211=CARTESIAN_POINT('Ctrl Pts',(23.1270052144661,6.23546010387785,42.1198740871377));
#212=CARTESIAN_POINT('Ctrl Pts',(22.6556523097037,7.77591041095675,41.860468571373));
#213=CARTESIAN_POINT('Ctrl Pts',(21.4244596122787,10.7114834817889,41.2071320142613));
#214=CARTESIAN_POINT('Ctrl Pts',(20.6636295435615,12.1095187457582,40.8130040284114));
#215=CARTESIAN_POINT('Ctrl Pts',(18.9210919010296,14.6839474009375,39.9590218954558));
#216=CARTESIAN_POINT('Ctrl Pts',(17.9392539743647,15.8604501663523,39.4997635650578));
#217=CARTESIAN_POINT('Ctrl Pts',(15.8555531242343,17.9441510164827,38.5979890744516));
#218=CARTESIAN_POINT('Ctrl Pts',(14.6765618204848,18.9267506865935,38.1214816688144));
#219=CARTESIAN_POINT('Ctrl Pts',(12.102943038486,20.6674170595324,37.2065468497366));
#220=CARTESIAN_POINT('Ctrl Pts',(10.7082417721237,21.4257935936312,36.7689166511144));
#221=CARTESIAN_POINT('Ctrl Pts',(7.77985685398683,22.6540227534629,36.0251750790107));
#222=CARTESIAN_POINT('Ctrl Pts',(6.24320439791464,23.1248642325069,35.719497547525));
#223=CARTESIAN_POINT('Ctrl Pts',(3.12559550906735,23.7480019941592,35.3082745680149));
#224=CARTESIAN_POINT('Ctrl Pts',(1.54446643948638,23.9,35.203586465018));
#225=CARTESIAN_POINT('Ctrl Pts',(-1.54446643948637,23.9,35.203586465018));
#226=CARTESIAN_POINT('Ctrl Pts',(-3.12559550906735,23.7480019941592,35.3082745680149));
#227=CARTESIAN_POINT('Ctrl Pts',(-6.24320439791463,23.1248642325069,35.719497547525));
#228=CARTESIAN_POINT('Ctrl Pts',(-7.77985685398682,22.6540227534629,36.0251750790107));
#229=CARTESIAN_POINT('Ctrl Pts',(-10.7082417721237,21.4257935936312,36.7689166511144));
#230=CARTESIAN_POINT('Ctrl Pts',(-12.102943038486,20.6674170595324,37.2065468497366));
#231=CARTESIAN_POINT('Ctrl Pts',(-14.6765618204848,18.9267506865935,38.1214816688144));
#232=CARTESIAN_POINT('Ctrl Pts',(-15.8555531242343,17.9441510164827,38.5979890744516));
#233=CARTESIAN_POINT('Ctrl Pts',(-17.9392539743647,15.8604501663523,39.4997635650578));
#234=CARTESIAN_POINT('Ctrl Pts',(-18.9210919010296,14.6839474009375,39.9590218954558));
#235=CARTESIAN_POINT('Ctrl Pts',(-20.6636295435615,12.1095187457582,40.8130040284114));
#236=CARTESIAN_POINT('Ctrl Pts',(-21.4244596122787,10.7114834817889,41.2071320142613));
#237=CARTESIAN_POINT('Ctrl Pts',(-22.6556523097037,7.77591041095675,41.860468571373));
#238=CARTESIAN_POINT('Ctrl Pts',(-23.1270052144661,6.23546010387785,42.1198740871377));
#239=CARTESIAN_POINT('Ctrl Pts',(-23.7492933712497,3.11615103553651,42.4647425349005));
#240=CARTESIAN_POINT('Ctrl Pts',(-23.9,1.53722395663977,42.55));
#241=CARTESIAN_POINT('Ctrl Pts',(-23.9,3.60822483003176E-15,42.55));
#242=CARTESIAN_POINT('Ctrl Pts',(-23.9,2.22044604925031E-15,42.55));
#243=CARTESIAN_POINT('Ctrl Pts',(-23.9,-1.53722395663977,42.55));
#244=CARTESIAN_POINT('Ctrl Pts',(-23.7492933712497,-3.1161510355365,42.4647425349005));
#245=CARTESIAN_POINT('Ctrl Pts',(-23.1270052144661,-6.23546010387785,42.1198740871377));
#246=CARTESIAN_POINT('Ctrl Pts',(-22.6556523097037,-7.77591041095675,41.860468571373));
#247=CARTESIAN_POINT('Ctrl Pts',(-21.4244596122787,-10.7114834817889,41.2071320142613));
#248=CARTESIAN_POINT('Ctrl Pts',(-20.6636295435615,-12.1095187457582,40.8130040284114));
#249=CARTESIAN_POINT('Ctrl Pts',(-18.9210919010296,-14.6839474009375,39.9590218954558));
#250=CARTESIAN_POINT('Ctrl Pts',(-17.9392539743647,-15.8604501663523,39.4997635650578));
#251=CARTESIAN_POINT('Ctrl Pts',(-15.8555531242343,-17.9441510164827,38.5979890744516));
#252=CARTESIAN_POINT('Ctrl Pts',(-14.6765618204848,-18.9267506865935,38.1214816688144));
#253=CARTESIAN_POINT('Ctrl Pts',(-12.102943038486,-20.6674170595324,37.2065468497366));
#254=CARTESIAN_POINT('Ctrl Pts',(-10.7082417721237,-21.4257935936312,36.7689166511144));
#255=CARTESIAN_POINT('Ctrl Pts',(-7.77985685398683,-22.6540227534629,36.0251750790107));
#256=CARTESIAN_POINT('Ctrl Pts',(-6.24320439791464,-23.1248642325069,35.719497547525));
#257=CARTESIAN_POINT('Ctrl Pts',(-3.12559550906736,-23.7480019941592,35.3082745680149));
#258=CARTESIAN_POINT('Ctrl Pts',(-1.54446643948638,-23.9,35.203586465018));
#259=CARTESIAN_POINT('Ctrl Pts',(-5.55111512312578E-16,-23.9,35.203586465018));
#260=CARTESIAN_POINT('',(-23.9,2.92690584996217E-15,49.5));
#261=CARTESIAN_POINT('',(-23.9,-2.92690584996217E-15,0.));
#262=CARTESIAN_POINT('Origin',(0.,0.,49.5));
#263=CARTESIAN_POINT('Origin',(0.,0.,0.));
#264=CARTESIAN_POINT('',(-100.,-42.55,-5.21087213037199E-15));
#265=CARTESIAN_POINT('Origin',(-100.,0.,0.));
#266=CARTESIAN_POINT('',(100.,-42.55,5.21087213037199E-15));
#267=CARTESIAN_POINT('',(0.,-42.55,-5.21087213037199E-15));
#268=CARTESIAN_POINT('Origin',(100.,0.,0.));
#269=CARTESIAN_POINT('Origin',(0.,0.,0.));
#270=CARTESIAN_POINT('',(-25.4,-3.11060286983428E-15,49.5));
#271=CARTESIAN_POINT('Origin',(0.,0.,49.5));
#272=CARTESIAN_POINT('',(-25.4,-3.63696960608931E-15,44.55));
#273=CARTESIAN_POINT('',(-25.4,-3.11060286983428E-15,0.));
#274=CARTESIAN_POINT('',(-2.77555756156289E-16,-25.4,36.5997609281809));
#275=CARTESIAN_POINT('Ctrl Pts',(0.,-25.4,36.5997609281809));
#276=CARTESIAN_POINT('Ctrl Pts',(-1.64327312272983,-25.4,36.5997609281809));
#277=CARTESIAN_POINT('Ctrl Pts',(-3.32474997270613,-25.23810631608,36.7137619089743));
#278=CARTESIAN_POINT('Ctrl Pts',(-6.63902487111012,-24.5751769611919,37.160772330764));
#279=CARTESIAN_POINT('Ctrl Pts',(-8.27201736299213,-24.0744652515526,37.4928199540323));
#280=CARTESIAN_POINT('Ctrl Pts',(-11.3833794638576,-22.7689481123542,38.2996903911651));
#281=CARTESIAN_POINT('Ctrl Pts',(-12.8649214448572,-21.963089115375,38.7740332740943));
#282=CARTESIAN_POINT('Ctrl Pts',(-15.598754128813,-20.1137355371205,39.7648158845428));
#283=CARTESIAN_POINT('Ctrl Pts',(-16.8511233718095,-19.0699011124671,40.2804043481567));
#284=CARTESIAN_POINT('Ctrl Pts',(-19.0643137104831,-16.8567107737935,41.2554073890914));
#285=CARTESIAN_POINT('Ctrl Pts',(-20.1072680161469,-15.60719185565,41.7516526477036));
#286=CARTESIAN_POINT('Ctrl Pts',(-21.9587392114498,-12.8724681831878,42.6741666499036));
#287=CARTESIAN_POINT('Ctrl Pts',(-22.7673933571797,-11.3871423662544,43.0998009234373));
#288=CARTESIAN_POINT('Ctrl Pts',(-24.076301283114,-8.26758409958457,43.8053296935352));
#289=CARTESIAN_POINT('Ctrl Pts',(-24.5776091001741,-6.63023923586945,44.0854454017393));
#290=CARTESIAN_POINT('Ctrl Pts',(-25.2395812408044,-3.313982530097,44.4578911824965));
#291=CARTESIAN_POINT('Ctrl Pts',(-25.4,-1.63499682958166,44.55));
#292=CARTESIAN_POINT('Ctrl Pts',(-25.4,-3.33066907387547E-15,44.55));
#293=CARTESIAN_POINT('Ctrl Pts',(-25.4,-4.16333634234434E-15,44.55));
#294=CARTESIAN_POINT('Ctrl Pts',(-25.4,1.63499682958166,44.55));
#295=CARTESIAN_POINT('Ctrl Pts',(-25.2395812408044,3.31398253009699,44.4578911824965));
#296=CARTESIAN_POINT('Ctrl Pts',(-24.5776091001741,6.63023923586944,44.0854454017393));
#297=CARTESIAN_POINT('Ctrl Pts',(-24.076301283114,8.26758409958456,43.8053296935352));
#298=CARTESIAN_POINT('Ctrl Pts',(-22.7673933571797,11.3871423662544,43.0998009234373));
#299=CARTESIAN_POINT('Ctrl Pts',(-21.9587392114498,12.8724681831878,42.6741666499036));
#300=CARTESIAN_POINT('Ctrl Pts',(-20.107268016147,15.60719185565,41.7516526477036));
#301=CARTESIAN_POINT('Ctrl Pts',(-19.0643137104831,16.8567107737935,41.2554073890914));
#302=CARTESIAN_POINT('Ctrl Pts',(-16.8511233718095,19.0699011124671,40.2804043481567));
#303=CARTESIAN_POINT('Ctrl Pts',(-15.598754128813,20.1137355371205,39.7648158845428));
#304=CARTESIAN_POINT('Ctrl Pts',(-12.8649214448572,21.963089115375,38.7740332740943));
#305=CARTESIAN_POINT('Ctrl Pts',(-11.3833794638576,22.7689481123542,38.2996903911651));
#306=CARTESIAN_POINT('Ctrl Pts',(-8.27201736299213,24.0744652515526,37.4928199540323));
#307=CARTESIAN_POINT('Ctrl Pts',(-6.63902487111012,24.5751769611919,37.160772330764));
#308=CARTESIAN_POINT('Ctrl Pts',(-3.32474997270613,25.23810631608,36.7137619089743));
#309=CARTESIAN_POINT('Ctrl Pts',(-1.64327312272983,25.4,36.5997609281809));
#310=CARTESIAN_POINT('Ctrl Pts',(1.64327312272983,25.4,36.5997609281809));
#311=CARTESIAN_POINT('Ctrl Pts',(3.32474997270613,25.23810631608,36.7137619089743));
#312=CARTESIAN_POINT('Ctrl Pts',(6.63902487111012,24.5751769611919,37.160772330764));
#313=CARTESIAN_POINT('Ctrl Pts',(8.27201736299214,24.0744652515526,37.4928199540323));
#314=CARTESIAN_POINT('Ctrl Pts',(11.3833794638576,22.7689481123542,38.2996903911651));
#315=CARTESIAN_POINT('Ctrl Pts',(12.8649214448572,21.963089115375,38.7740332740943));
#316=CARTESIAN_POINT('Ctrl Pts',(15.598754128813,20.1137355371205,39.7648158845428));
#317=CARTESIAN_POINT('Ctrl Pts',(16.8511233718095,19.0699011124671,40.2804043481567));
#318=CARTESIAN_POINT('Ctrl Pts',(19.0643137104831,16.8567107737935,41.2554073890914));
#319=CARTESIAN_POINT('Ctrl Pts',(20.1072680161469,15.60719185565,41.7516526477036));
#320=CARTESIAN_POINT('Ctrl Pts',(21.9587392114498,12.8724681831878,42.6741666499036));
#321=CARTESIAN_POINT('Ctrl Pts',(22.7673933571797,11.3871423662544,43.0998009234373));
#322=CARTESIAN_POINT('Ctrl Pts',(24.076301283114,8.26758409958458,43.8053296935352));
#323=CARTESIAN_POINT('Ctrl Pts',(24.5776091001741,6.63023923586946,44.0854454017393));
#324=CARTESIAN_POINT('Ctrl Pts',(25.2395812408044,3.31398253009701,44.4578911824965));
#325=CARTESIAN_POINT('Ctrl Pts',(25.4,1.63499682958167,44.55));
#326=CARTESIAN_POINT('Ctrl Pts',(25.4,-1.63499682958166,44.55));
#327=CARTESIAN_POINT('Ctrl Pts',(25.2395812408044,-3.313982530097,44.4578911824965));
#328=CARTESIAN_POINT('Ctrl Pts',(24.5776091001741,-6.63023923586944,44.0854454017393));
#329=CARTESIAN_POINT('Ctrl Pts',(24.076301283114,-8.26758409958456,43.8053296935352));
#330=CARTESIAN_POINT('Ctrl Pts',(22.7673933571797,-11.3871423662544,43.0998009234373));
#331=CARTESIAN_POINT('Ctrl Pts',(21.9587392114498,-12.8724681831878,42.6741666499036));
#332=CARTESIAN_POINT('Ctrl Pts',(20.107268016147,-15.60719185565,41.7516526477036));
#333=CARTESIAN_POINT('Ctrl Pts',(19.0643137104831,-16.8567107737935,41.2554073890914));
#334=CARTESIAN_POINT('Ctrl Pts',(16.8511233718095,-19.0699011124671,40.2804043481567));
#335=CARTESIAN_POINT('Ctrl Pts',(15.598754128813,-20.1137355371205,39.7648158845428));
#336=CARTESIAN_POINT('Ctrl Pts',(12.8649214448572,-21.963089115375,38.7740332740943));
#337=CARTESIAN_POINT('Ctrl Pts',(11.3833794638576,-22.7689481123542,38.2996903911651));
#338=CARTESIAN_POINT('Ctrl Pts',(8.27201736299213,-24.0744652515526,37.4928199540323));
#339=CARTESIAN_POINT('Ctrl Pts',(6.63902487111012,-24.5751769611919,37.160772330764));
#340=CARTESIAN_POINT('Ctrl Pts',(3.32474997270612,-25.23810631608,36.7137619089743));
#341=CARTESIAN_POINT('Ctrl Pts',(1.64327312272983,-25.4,36.5997609281809));
#342=CARTESIAN_POINT('Ctrl Pts',(-5.55111512312578E-16,-25.4,36.5997609281809));
#343=CARTESIAN_POINT('Origin',(0.,0.,49.5));
#344=CARTESIAN_POINT('Origin',(-100.,0.,0.));
#345=CARTESIAN_POINT('',(-100.,-44.55,-5.45580149020146E-15));
#346=CARTESIAN_POINT('Origin',(-100.,0.,0.));
#347=CARTESIAN_POINT('Origin',(0.,0.,0.));
#348=CARTESIAN_POINT('',(100.,-44.55,-5.45580149020146E-15));
#349=CARTESIAN_POINT('Origin',(100.,0.,0.));
#350=CARTESIAN_POINT('',(0.,-44.55,-5.45580149020146E-15));
#351=CARTESIAN_POINT('Origin',(100.,0.,0.));
#352=UNCERTAINTY_MEASURE_WITH_UNIT(LENGTH_MEASURE(0.01),#356,
'DISTANCE_ACCURACY_VALUE',
'Maximum model space distance between geometric entities at asserted c
onnectivities');
#353=UNCERTAINTY_MEASURE_WITH_UNIT(LENGTH_MEASURE(0.01),#356,
'DISTANCE_ACCURACY_VALUE',
'Maximum model space distance between geometric entities at asserted c
onnectivities');
#354=(
GEOMETRIC_REPRESENTATION_CONTEXT(3)
GLOBAL_UNCERTAINTY_ASSIGNED_CONTEXT((#352))
GLOBAL_UNIT_ASSIGNED_CONTEXT((#356,#358,#359))
REPRESENTATION_CONTEXT('','3D')
);
#355=(
GEOMETRIC_REPRESENTATION_CONTEXT(3)
GLOBAL_UNCERTAINTY_ASSIGNED_CONTEXT((#353))
GLOBAL_UNIT_ASSIGNED_CONTEXT((#356,#358,#359))
REPRESENTATION_CONTEXT('','3D')
);
#356=(
LENGTH_UNIT()
NAMED_UNIT(*)
SI_UNIT(.MILLI.,.METRE.)
);
#357=(
LENGTH_UNIT()
NAMED_UNIT(*)
SI_UNIT(.CENTI.,.METRE.)
);
#358=(
NAMED_UNIT(*)
PLANE_ANGLE_UNIT()
SI_UNIT($,.RADIAN.)
);
#359=(
NAMED_UNIT(*)
SI_UNIT($,.STERADIAN.)
SOLID_ANGLE_UNIT()
);
#360=SHAPE_DEFINITION_REPRESENTATION(#361,#362);
#361=PRODUCT_DEFINITION_SHAPE('',$,#364);
#362=SHAPE_REPRESENTATION('',(#142),#354);
#363=PRODUCT_DEFINITION_CONTEXT('part definition',#368,'design');
#364=PRODUCT_DEFINITION('T-8 35\X\D720','T-8 35\X\D720',#365,#363);
#365=PRODUCT_DEFINITION_FORMATION('',$,#370);
#366=PRODUCT_RELATED_PRODUCT_CATEGORY('T-8 35\X\D720','T-8 35\X\D720',(#370));
#367=APPLICATION_PROTOCOL_DEFINITION('international standard',
'automotive_design',2009,#368);
#368=APPLICATION_CONTEXT(
'Core Data for Automotive Mechanical Design Process');
#369=PRODUCT_CONTEXT('part definition',#368,'mechanical');
#370=PRODUCT('T-8 35\X\D720','T-8 35\X\D720',$,(#369));
#371=PRESENTATION_STYLE_ASSIGNMENT((#372));
#372=SURFACE_STYLE_USAGE(.BOTH.,#375);
#373=SURFACE_STYLE_RENDERING_WITH_PROPERTIES($,#379,(#374));
#374=SURFACE_STYLE_TRANSPARENT(0.);
#375=SURFACE_SIDE_STYLE('',(#376,#373));
#376=SURFACE_STYLE_FILL_AREA(#377);
#377=FILL_AREA_STYLE('',(#378));
#378=FILL_AREA_STYLE_COLOUR('',#379);
#379=COLOUR_RGB('',0.749019607843137,0.749019607843137,0.749019607843137);
ENDSEC;
END-ISO-10303-21;
