ISO-10303-21;
HEADER;
/* Generated by software containing ST-Developer
 * from STEP Tools, Inc. (www.steptools.com) 
 */

FILE_DESCRIPTION(
/* description */ (''),
/* implementation_level */ '2;1');

FILE_NAME(
/* name */ 
'\\\\Tske00\\w\\Work\\TOSTE\\\X2\7D99624B\X0\\\02_\X2\6EB663A5\X0\\\\X2\6EB663A5752830C130FC30BA\X0\\\
T-8\\T-8 35\X\D715.stp',
/* time_stamp */ '2022-04-28T09:37:17+09:00',
/* author */ ('3dcad-eng'),
/* organization */ (''),
/* preprocessor_version */ 'ST-DEVELOPER v18.1',
/* originating_system */ 'Autodesk Inventor 2022',
/* authorisation */ '');

FILE_SCHEMA (('AUTOMOTIVE_DESIGN { 1 0 10303 214 3 1 1 }'));
ENDSEC;

DATA;
#10=MECHANICAL_DESIGN_GEOMETRIC_PRESENTATION_REPRESENTATION('',(#13),#355);
#11=SHAPE_REPRESENTATION_RELATIONSHIP('SRR','None',#362,#12);
#12=ADVANCED_BREP_SHAPE_REPRESENTATION('',(#14),#354);
#13=STYLED_ITEM('',(#371),#14);
#14=MANIFOLD_SOLID_BREP('\X2\30BD30EA30C330C9\X0\1',#123);
#15=PLANE('',#150);
#16=PLANE('',#151);
#17=PLANE('',#155);
#18=FACE_BOUND('',#32,.T.);
#19=FACE_BOUND('',#35,.T.);
#20=FACE_BOUND('',#37,.T.);
#21=FACE_BOUND('',#39,.T.);
#22=FACE_BOUND('',#41,.T.);
#23=FACE_OUTER_BOUND('',#30,.T.);
#24=FACE_OUTER_BOUND('',#31,.T.);
#25=FACE_OUTER_BOUND('',#33,.T.);
#26=FACE_OUTER_BOUND('',#34,.T.);
#27=FACE_OUTER_BOUND('',#36,.T.);
#28=FACE_OUTER_BOUND('',#38,.T.);
#29=FACE_OUTER_BOUND('',#40,.T.);
#30=EDGE_LOOP('',(#84,#85,#86,#87,#88));
#31=EDGE_LOOP('',(#89,#90,#91,#92));
#32=EDGE_LOOP('',(#93,#94));
#33=EDGE_LOOP('',(#95,#96,#97,#98,#99));
#34=EDGE_LOOP('',(#100));
#35=EDGE_LOOP('',(#101));
#36=EDGE_LOOP('',(#102));
#37=EDGE_LOOP('',(#103));
#38=EDGE_LOOP('',(#104,#105,#106,#107));
#39=EDGE_LOOP('',(#108,#109));
#40=EDGE_LOOP('',(#110));
#41=EDGE_LOOP('',(#111));
#42=CIRCLE('',#144,17.85);
#43=CIRCLE('',#146,42.55);
#44=CIRCLE('',#147,42.55);
#45=CIRCLE('',#149,19.05);
#46=CIRCLE('',#152,44.55);
#47=CIRCLE('',#154,44.55);
#48=LINE('',#261,#52);
#49=LINE('',#267,#53);
#50=LINE('',#273,#54);
#51=LINE('',#350,#55);
#52=VECTOR('',#160,17.85);
#53=VECTOR('',#167,42.55);
#54=VECTOR('',#174,19.05);
#55=VECTOR('',#185,44.55);
#56=B_SPLINE_CURVE_WITH_KNOTS('',3,(#192,#193,#194,#195,#196,#197,#198,
#199,#200,#201,#202,#203,#204,#205,#206,#207,#208,#209,#210,#211,#212,#213,
#214,#215,#216,#217,#218,#219,#220,#221,#222,#223,#224,#225,#226,#227,#228,
#229,#230,#231,#232,#233,#234,#235,#236,#237,#238,#239,#240,#241),
 .UNSPECIFIED.,.F.,.F.,(4,2,2,2,2,2,2,2,2,2,2,2,2,2,2,2,2,2,2,2,2,2,2,2,
4),(0.,0.341038779163906,0.682077558327812,1.02311633749172,1.36415511665562,
1.70476935936366,2.04538360207169,2.38599784477973,2.72661208748777,3.0672263301958,
3.40784057290384,3.74845481561187,4.08906905831991,4.43010783748381,4.77114661664772,
5.11218539581163,5.45322417497553,5.79426295413944,6.13530173330334,6.47634051246725,
6.81737929163115,7.15799353433919,7.49860777704723,7.83922201975526,8.1798362624633),
 .UNSPECIFIED.);
#57=B_SPLINE_CURVE_WITH_KNOTS('',3,(#242,#243,#244,#245,#246,#247,#248,
#249,#250,#251,#252,#253,#254,#255,#256,#257,#258,#259),.UNSPECIFIED.,.F.,
 .F.,(4,2,2,2,2,2,2,2,4),(8.1798362624633,8.52045050517133,8.86106474787937,
9.2016789905874,9.54229323329544,9.88333201245934,10.2243707916233,10.5654095707872,
10.9064483499511),.UNSPECIFIED.);
#58=B_SPLINE_CURVE_WITH_KNOTS('',3,(#275,#276,#277,#278,#279,#280,#281,
#282,#283,#284,#285,#286,#287,#288,#289,#290,#291,#292),.UNSPECIFIED.,.F.,
 .F.,(4,2,2,2,2,2,2,2,4),(0.,0.364198695200266,0.728397390400532,1.0925960856008,
1.45679478080106,1.82050043689291,2.18420609298475,2.54791174907659,2.91161740516843),
 .UNSPECIFIED.);
#59=B_SPLINE_CURVE_WITH_KNOTS('',3,(#293,#294,#295,#296,#297,#298,#299,
#300,#301,#302,#303,#304,#305,#306,#307,#308,#309,#310,#311,#312,#313,#314,
#315,#316,#317,#318,#319,#320,#321,#322,#323,#324,#325,#326,#327,#328,#329,
#330,#331,#332,#333,#334,#335,#336,#337,#338,#339,#340,#341,#342),
 .UNSPECIFIED.,.F.,.F.,(4,2,2,2,2,2,2,2,2,2,2,2,2,2,2,2,2,2,2,2,2,2,2,2,
4),(2.91161740516843,3.27532306126027,3.63902871735211,4.00273437344396,
4.3664400295358,4.73063872473606,5.09483741993633,5.4590361151366,5.82323481033686,
6.18743350553713,6.55163220073739,6.91583089593766,7.28002959113793,7.64373524722977,
8.00744090332161,8.37114655941345,8.73485221550529,9.09855787159713,9.46226352768898,
9.82596918378082,10.1896748398727,10.5538735350729,10.9180722302732,11.2822709254735,
11.6464696206737),.UNSPECIFIED.);
#60=VERTEX_POINT('',#190);
#61=VERTEX_POINT('',#191);
#62=VERTEX_POINT('',#260);
#63=VERTEX_POINT('',#264);
#64=VERTEX_POINT('',#266);
#65=VERTEX_POINT('',#270);
#66=VERTEX_POINT('',#272);
#67=VERTEX_POINT('',#274);
#68=VERTEX_POINT('',#345);
#69=VERTEX_POINT('',#348);
#70=EDGE_CURVE('',#60,#61,#56,.T.);
#71=EDGE_CURVE('',#61,#60,#57,.T.);
#72=EDGE_CURVE('',#61,#62,#48,.T.);
#73=EDGE_CURVE('',#62,#62,#42,.T.);
#74=EDGE_CURVE('',#63,#63,#43,.T.);
#75=EDGE_CURVE('',#63,#64,#49,.T.);
#76=EDGE_CURVE('',#64,#64,#44,.T.);
#77=EDGE_CURVE('',#65,#65,#45,.T.);
#78=EDGE_CURVE('',#65,#66,#50,.T.);
#79=EDGE_CURVE('',#67,#66,#58,.T.);
#80=EDGE_CURVE('',#66,#67,#59,.T.);
#81=EDGE_CURVE('',#68,#68,#46,.T.);
#82=EDGE_CURVE('',#69,#69,#47,.T.);
#83=EDGE_CURVE('',#69,#68,#51,.T.);
#84=ORIENTED_EDGE('',*,*,#70,.F.);
#85=ORIENTED_EDGE('',*,*,#71,.F.);
#86=ORIENTED_EDGE('',*,*,#72,.T.);
#87=ORIENTED_EDGE('',*,*,#73,.F.);
#88=ORIENTED_EDGE('',*,*,#72,.F.);
#89=ORIENTED_EDGE('',*,*,#74,.F.);
#90=ORIENTED_EDGE('',*,*,#75,.T.);
#91=ORIENTED_EDGE('',*,*,#76,.F.);
#92=ORIENTED_EDGE('',*,*,#75,.F.);
#93=ORIENTED_EDGE('',*,*,#70,.T.);
#94=ORIENTED_EDGE('',*,*,#71,.T.);
#95=ORIENTED_EDGE('',*,*,#77,.F.);
#96=ORIENTED_EDGE('',*,*,#78,.T.);
#97=ORIENTED_EDGE('',*,*,#79,.F.);
#98=ORIENTED_EDGE('',*,*,#80,.F.);
#99=ORIENTED_EDGE('',*,*,#78,.F.);
#100=ORIENTED_EDGE('',*,*,#77,.T.);
#101=ORIENTED_EDGE('',*,*,#73,.T.);
#102=ORIENTED_EDGE('',*,*,#81,.T.);
#103=ORIENTED_EDGE('',*,*,#74,.T.);
#104=ORIENTED_EDGE('',*,*,#82,.F.);
#105=ORIENTED_EDGE('',*,*,#83,.T.);
#106=ORIENTED_EDGE('',*,*,#81,.F.);
#107=ORIENTED_EDGE('',*,*,#83,.F.);
#108=ORIENTED_EDGE('',*,*,#79,.T.);
#109=ORIENTED_EDGE('',*,*,#80,.T.);
#110=ORIENTED_EDGE('',*,*,#82,.T.);
#111=ORIENTED_EDGE('',*,*,#76,.T.);
#112=CYLINDRICAL_SURFACE('',#143,17.85);
#113=CYLINDRICAL_SURFACE('',#145,42.55);
#114=CYLINDRICAL_SURFACE('',#148,19.05);
#115=CYLINDRICAL_SURFACE('',#153,44.55);
#116=ADVANCED_FACE('',(#23),#112,.F.);
#117=ADVANCED_FACE('',(#24,#18),#113,.F.);
#118=ADVANCED_FACE('',(#25),#114,.T.);
#119=ADVANCED_FACE('',(#26,#19),#15,.T.);
#120=ADVANCED_FACE('',(#27,#20),#16,.F.);
#121=ADVANCED_FACE('',(#28,#21),#115,.T.);
#122=ADVANCED_FACE('',(#29,#22),#17,.T.);
#123=CLOSED_SHELL('',(#116,#117,#118,#119,#120,#121,#122));
#124=DERIVED_UNIT_ELEMENT(#126,1.);
#125=DERIVED_UNIT_ELEMENT(#357,-3.);
#126=(
MASS_UNIT()
NAMED_UNIT(*)
SI_UNIT($,.GRAM.)
);
#127=DERIVED_UNIT((#124,#125));
#128=MEASURE_REPRESENTATION_ITEM('density measure',
POSITIVE_RATIO_MEASURE(1.),#127);
#129=PROPERTY_DEFINITION_REPRESENTATION(#134,#131);
#130=PROPERTY_DEFINITION_REPRESENTATION(#135,#132);
#131=REPRESENTATION('material name',(#133),#354);
#132=REPRESENTATION('density',(#128),#354);
#133=DESCRIPTIVE_REPRESENTATION_ITEM('\X2\4E00822C\X0\','\X2\4E00822C\X0\');
#134=PROPERTY_DEFINITION('material property','material name',#364);
#135=PROPERTY_DEFINITION('material property','density of part',#364);
#136=DATE_TIME_ROLE('creation_date');
#137=APPLIED_DATE_AND_TIME_ASSIGNMENT(#138,#136,(#364));
#138=DATE_AND_TIME(#139,#140);
#139=CALENDAR_DATE(2022,31,3);
#140=LOCAL_TIME(0,0,0.,#141);
#141=COORDINATED_UNIVERSAL_TIME_OFFSET(0,0,.BEHIND.);
#142=AXIS2_PLACEMENT_3D('placement',#188,#156,#157);
#143=AXIS2_PLACEMENT_3D('',#189,#158,#159);
#144=AXIS2_PLACEMENT_3D('',#262,#161,#162);
#145=AXIS2_PLACEMENT_3D('',#263,#163,#164);
#146=AXIS2_PLACEMENT_3D('',#265,#165,#166);
#147=AXIS2_PLACEMENT_3D('',#268,#168,#169);
#148=AXIS2_PLACEMENT_3D('',#269,#170,#171);
#149=AXIS2_PLACEMENT_3D('',#271,#172,#173);
#150=AXIS2_PLACEMENT_3D('',#343,#175,#176);
#151=AXIS2_PLACEMENT_3D('',#344,#177,#178);
#152=AXIS2_PLACEMENT_3D('',#346,#179,#180);
#153=AXIS2_PLACEMENT_3D('',#347,#181,#182);
#154=AXIS2_PLACEMENT_3D('',#349,#183,#184);
#155=AXIS2_PLACEMENT_3D('',#351,#186,#187);
#156=DIRECTION('axis',(0.,0.,1.));
#157=DIRECTION('refdir',(1.,0.,0.));
#158=DIRECTION('center_axis',(0.,0.,1.));
#159=DIRECTION('ref_axis',(1.,0.,0.));
#160=DIRECTION('',(0.,0.,1.));
#161=DIRECTION('center_axis',(0.,0.,-1.));
#162=DIRECTION('ref_axis',(1.,0.,0.));
#163=DIRECTION('center_axis',(1.,0.,0.));
#164=DIRECTION('ref_axis',(0.,1.,0.));
#165=DIRECTION('center_axis',(1.,0.,0.));
#166=DIRECTION('ref_axis',(0.,1.,0.));
#167=DIRECTION('',(1.,0.,0.));
#168=DIRECTION('center_axis',(-1.,0.,0.));
#169=DIRECTION('ref_axis',(0.,1.,0.));
#170=DIRECTION('center_axis',(0.,0.,1.));
#171=DIRECTION('ref_axis',(1.,0.,0.));
#172=DIRECTION('center_axis',(0.,0.,1.));
#173=DIRECTION('ref_axis',(1.,0.,0.));
#174=DIRECTION('',(0.,0.,-1.));
#175=DIRECTION('center_axis',(0.,0.,1.));
#176=DIRECTION('ref_axis',(1.,0.,0.));
#177=DIRECTION('center_axis',(1.,0.,0.));
#178=DIRECTION('ref_axis',(0.,0.,-1.));
#179=DIRECTION('center_axis',(-1.,0.,0.));
#180=DIRECTION('ref_axis',(0.,1.,0.));
#181=DIRECTION('center_axis',(1.,0.,0.));
#182=DIRECTION('ref_axis',(0.,1.,0.));
#183=DIRECTION('center_axis',(1.,0.,0.));
#184=DIRECTION('ref_axis',(0.,1.,0.));
#185=DIRECTION('',(-1.,0.,0.));
#186=DIRECTION('center_axis',(1.,0.,0.));
#187=DIRECTION('ref_axis',(0.,0.,-1.));
#188=CARTESIAN_POINT('',(0.,0.,0.));
#189=CARTESIAN_POINT('Origin',(0.,0.,0.));
#190=CARTESIAN_POINT('',(0.,-17.85,38.624862459302));
#191=CARTESIAN_POINT('',(-17.85,-2.60329999770145E-16,42.55));
#192=CARTESIAN_POINT('Ctrl Pts',(0.,-17.85,38.624862459302));
#193=CARTESIAN_POINT('Ctrl Pts',(1.13679593054635,-17.85,38.624862459302));
#194=CARTESIAN_POINT('Ctrl Pts',(2.30708480457957,-17.7396678630337,38.676479295984));
#195=CARTESIAN_POINT('Ctrl Pts',(4.62511919774909,-17.2808196788338,38.8836615775981));
#196=CARTESIAN_POINT('Ctrl Pts',(5.77291963940578,-16.9324605188289,39.0389598683069));
#197=CARTESIAN_POINT('Ctrl Pts',(7.96668208530857,-16.0177040398891,39.4231115774231));
#198=CARTESIAN_POINT('Ctrl Pts',(9.01465750005344,-15.4505814407115,39.6518169373707));
#199=CARTESIAN_POINT('Ctrl Pts',(10.9496715794557,-14.1452892916232,40.1359918782305));
#200=CARTESIAN_POINT('Ctrl Pts',(11.8367345312201,-13.4069775571396,40.3909809484735));
#201=CARTESIAN_POINT('Ctrl Pts',(13.4060002116736,-11.8377118766861,40.8784207746661));
#202=CARTESIAN_POINT('Ctrl Pts',(14.1441846381129,-10.9511210681265,41.1286553475754));
#203=CARTESIAN_POINT('Ctrl Pts',(15.4498882266913,-9.01587297886669,41.5957615359985));
#204=CARTESIAN_POINT('Ctrl Pts',(16.0175086411764,-7.96718902009554,41.8122395028678));
#205=CARTESIAN_POINT('Ctrl Pts',(16.9328346878762,-5.77198397166649,42.1713608337601));
#206=CARTESIAN_POINT('Ctrl Pts',(17.2812683099899,-4.62346894802736,42.314047427926));
#207=CARTESIAN_POINT('Ctrl Pts',(17.7399215465533,-2.30518611857492,42.5034256478975));
#208=CARTESIAN_POINT('Ctrl Pts',(17.85,-1.13538080902678,42.55));
#209=CARTESIAN_POINT('Ctrl Pts',(17.85,1.13538080902678,42.55));
#210=CARTESIAN_POINT('Ctrl Pts',(17.7399215465533,2.30518611857492,42.5034256478975));
#211=CARTESIAN_POINT('Ctrl Pts',(17.2812683099899,4.62346894802736,42.314047427926));
#212=CARTESIAN_POINT('Ctrl Pts',(16.9328346878762,5.77198397166649,42.1713608337601));
#213=CARTESIAN_POINT('Ctrl Pts',(16.0175086411764,7.96718902009554,41.8122395028677));
#214=CARTESIAN_POINT('Ctrl Pts',(15.4498882266913,9.0158729788667,41.5957615359985));
#215=CARTESIAN_POINT('Ctrl Pts',(14.1441846381129,10.9511210681265,41.1286553475754));
#216=CARTESIAN_POINT('Ctrl Pts',(13.4060002116736,11.8377118766861,40.8784207746661));
#217=CARTESIAN_POINT('Ctrl Pts',(11.8367345312201,13.4069775571396,40.3909809484735));
#218=CARTESIAN_POINT('Ctrl Pts',(10.9496715794557,14.1452892916232,40.1359918782305));
#219=CARTESIAN_POINT('Ctrl Pts',(9.01465750005344,15.4505814407115,39.6518169373707));
#220=CARTESIAN_POINT('Ctrl Pts',(7.96668208530857,16.0177040398891,39.4231115774231));
#221=CARTESIAN_POINT('Ctrl Pts',(5.77291963940578,16.9324605188289,39.0389598683069));
#222=CARTESIAN_POINT('Ctrl Pts',(4.62511919774909,17.2808196788338,38.8836615775981));
#223=CARTESIAN_POINT('Ctrl Pts',(2.30708480457957,17.7396678630337,38.676479295984));
#224=CARTESIAN_POINT('Ctrl Pts',(1.13679593054635,17.85,38.624862459302));
#225=CARTESIAN_POINT('Ctrl Pts',(-1.13679593054635,17.85,38.624862459302));
#226=CARTESIAN_POINT('Ctrl Pts',(-2.30708480457957,17.7396678630337,38.676479295984));
#227=CARTESIAN_POINT('Ctrl Pts',(-4.62511919774909,17.2808196788338,38.8836615775981));
#228=CARTESIAN_POINT('Ctrl Pts',(-5.77291963940578,16.9324605188289,39.0389598683069));
#229=CARTESIAN_POINT('Ctrl Pts',(-7.96668208530857,16.0177040398891,39.4231115774231));
#230=CARTESIAN_POINT('Ctrl Pts',(-9.01465750005344,15.4505814407115,39.6518169373707));
#231=CARTESIAN_POINT('Ctrl Pts',(-10.9496715794557,14.1452892916232,40.1359918782305));
#232=CARTESIAN_POINT('Ctrl Pts',(-11.8367345312201,13.4069775571396,40.3909809484735));
#233=CARTESIAN_POINT('Ctrl Pts',(-13.4060002116736,11.8377118766861,40.8784207746661));
#234=CARTESIAN_POINT('Ctrl Pts',(-14.1441846381129,10.9511210681265,41.1286553475754));
#235=CARTESIAN_POINT('Ctrl Pts',(-15.4498882266913,9.01587297886669,41.5957615359985));
#236=CARTESIAN_POINT('Ctrl Pts',(-16.0175086411764,7.96718902009553,41.8122395028678));
#237=CARTESIAN_POINT('Ctrl Pts',(-16.9328346878762,5.77198397166649,42.1713608337601));
#238=CARTESIAN_POINT('Ctrl Pts',(-17.2812683099899,4.62346894802736,42.314047427926));
#239=CARTESIAN_POINT('Ctrl Pts',(-17.7399215465533,2.30518611857492,42.5034256478975));
#240=CARTESIAN_POINT('Ctrl Pts',(-17.85,1.13538080902679,42.55));
#241=CARTESIAN_POINT('Ctrl Pts',(-17.85,8.32667268468867E-16,42.55));
#242=CARTESIAN_POINT('Ctrl Pts',(-17.85,1.66533453693773E-15,42.55));
#243=CARTESIAN_POINT('Ctrl Pts',(-17.85,-1.13538080902678,42.55));
#244=CARTESIAN_POINT('Ctrl Pts',(-17.7399215465533,-2.30518611857491,42.5034256478975));
#245=CARTESIAN_POINT('Ctrl Pts',(-17.2812683099899,-4.62346894802736,42.314047427926));
#246=CARTESIAN_POINT('Ctrl Pts',(-16.9328346878762,-5.77198397166649,42.1713608337601));
#247=CARTESIAN_POINT('Ctrl Pts',(-16.0175086411764,-7.96718902009553,41.8122395028678));
#248=CARTESIAN_POINT('Ctrl Pts',(-15.4498882266913,-9.01587297886669,41.5957615359985));
#249=CARTESIAN_POINT('Ctrl Pts',(-14.1441846381129,-10.9511210681265,41.1286553475754));
#250=CARTESIAN_POINT('Ctrl Pts',(-13.4060002116736,-11.8377118766861,40.8784207746661));
#251=CARTESIAN_POINT('Ctrl Pts',(-11.8367345312201,-13.4069775571396,40.3909809484735));
#252=CARTESIAN_POINT('Ctrl Pts',(-10.9496715794557,-14.1452892916232,40.1359918782305));
#253=CARTESIAN_POINT('Ctrl Pts',(-9.01465750005344,-15.4505814407115,39.6518169373707));
#254=CARTESIAN_POINT('Ctrl Pts',(-7.96668208530857,-16.0177040398891,39.4231115774231));
#255=CARTESIAN_POINT('Ctrl Pts',(-5.77291963940578,-16.9324605188289,39.0389598683069));
#256=CARTESIAN_POINT('Ctrl Pts',(-4.62511919774909,-17.2808196788338,38.8836615775981));
#257=CARTESIAN_POINT('Ctrl Pts',(-2.30708480457957,-17.7396678630337,38.676479295984));
#258=CARTESIAN_POINT('Ctrl Pts',(-1.13679593054635,-17.85,38.624862459302));
#259=CARTESIAN_POINT('Ctrl Pts',(2.77555756156289E-16,-17.85,38.624862459302));
#260=CARTESIAN_POINT('',(-17.85,2.18599453647803E-15,49.5));
#261=CARTESIAN_POINT('',(-17.85,-2.18599453647803E-15,0.));
#262=CARTESIAN_POINT('Origin',(0.,0.,49.5));
#263=CARTESIAN_POINT('Origin',(0.,0.,0.));
#264=CARTESIAN_POINT('',(-100.,-42.55,-5.21087213037199E-15));
#265=CARTESIAN_POINT('Origin',(-100.,0.,0.));
#266=CARTESIAN_POINT('',(100.,-42.55,5.21087213037199E-15));
#267=CARTESIAN_POINT('',(0.,-42.55,-5.21087213037199E-15));
#268=CARTESIAN_POINT('Origin',(100.,0.,0.));
#269=CARTESIAN_POINT('Origin',(0.,0.,0.));
#270=CARTESIAN_POINT('',(-19.05,-2.33295215237571E-15,49.5));
#271=CARTESIAN_POINT('Origin',(0.,0.,49.5));
#272=CARTESIAN_POINT('',(-19.05,-2.13792122273487E-15,44.55));
#273=CARTESIAN_POINT('',(-19.05,-2.33295215237571E-15,0.));
#274=CARTESIAN_POINT('',(2.77555756156289E-16,-19.05,40.2715780669196));
#275=CARTESIAN_POINT('Ctrl Pts',(2.77555756156289E-16,-19.05,40.2715780669196));
#276=CARTESIAN_POINT('Ctrl Pts',(-1.21399565066755,-19.05,40.2715780669196));
#277=CARTESIAN_POINT('Ctrl Pts',(-2.46347869583803,-18.9321018686205,40.3280406892117));
#278=CARTESIAN_POINT('Ctrl Pts',(-4.93789098193203,-18.4420834321053,40.5544683786146));
#279=CARTESIAN_POINT('Ctrl Pts',(-6.16288136548005,-18.0701336516666,40.7241341783937));
#280=CARTESIAN_POINT('Ctrl Pts',(-8.50384082649222,-17.0937293349845,41.1435196285758));
#281=CARTESIAN_POINT('Ctrl Pts',(-9.62196991126058,-16.4885005371127,41.3930732381317));
#282=CARTESIAN_POINT('Ctrl Pts',(-11.6864212755781,-15.0957117378302,41.921076430285));
#283=CARTESIAN_POINT('Ctrl Pts',(-12.6327721289659,-14.3079962342415,42.1990039604023));
#284=CARTESIAN_POINT('Ctrl Pts',(-14.3068623051389,-12.6339060580686,42.7300482083744));
#285=CARTESIAN_POINT('Ctrl Pts',(-15.0944288461465,-11.6881042316966,43.0025715317211));
#286=CARTESIAN_POINT('Ctrl Pts',(-16.4876931291577,-9.6233849592776,43.5111870761615));
#287=CARTESIAN_POINT('Ctrl Pts',(-17.0934991570565,-8.50443591292126,43.7468542906283));
#288=CARTESIAN_POINT('Ctrl Pts',(-18.0705654194638,-6.16180295252483,44.137794184186));
#289=CARTESIAN_POINT('Ctrl Pts',(-18.4426029733687,-4.93598127860853,44.2931174811199));
#290=CARTESIAN_POINT('Ctrl Pts',(-18.9323964332119,-2.46127627795253,44.4992841118199));
#291=CARTESIAN_POINT('Ctrl Pts',(-19.05,-1.21235218697281,44.55));
#292=CARTESIAN_POINT('Ctrl Pts',(-19.05,-1.94289029309402E-15,44.55));
#293=CARTESIAN_POINT('Ctrl Pts',(-19.05,-1.66533453693773E-15,44.55));
#294=CARTESIAN_POINT('Ctrl Pts',(-19.05,1.2123521869728,44.55));
#295=CARTESIAN_POINT('Ctrl Pts',(-18.9323964332119,2.46127627795253,44.4992841118199));
#296=CARTESIAN_POINT('Ctrl Pts',(-18.4426029733687,4.93598127860853,44.2931174811199));
#297=CARTESIAN_POINT('Ctrl Pts',(-18.0705654194638,6.16180295252482,44.137794184186));
#298=CARTESIAN_POINT('Ctrl Pts',(-17.0934991570565,8.50443591292125,43.7468542906283));
#299=CARTESIAN_POINT('Ctrl Pts',(-16.4876931291577,9.62338495927759,43.5111870761615));
#300=CARTESIAN_POINT('Ctrl Pts',(-15.0944288461465,11.6881042316966,43.0025715317211));
#301=CARTESIAN_POINT('Ctrl Pts',(-14.3068623051389,12.6339060580686,42.7300482083744));
#302=CARTESIAN_POINT('Ctrl Pts',(-12.6327721289659,14.3079962342415,42.1990039604023));
#303=CARTESIAN_POINT('Ctrl Pts',(-11.6864212755781,15.0957117378302,41.921076430285));
#304=CARTESIAN_POINT('Ctrl Pts',(-9.62196991126058,16.4885005371127,41.3930732381318));
#305=CARTESIAN_POINT('Ctrl Pts',(-8.50384082649222,17.0937293349845,41.1435196285758));
#306=CARTESIAN_POINT('Ctrl Pts',(-6.16288136548005,18.0701336516666,40.7241341783937));
#307=CARTESIAN_POINT('Ctrl Pts',(-4.93789098193202,18.4420834321053,40.5544683786146));
#308=CARTESIAN_POINT('Ctrl Pts',(-2.46347869583803,18.9321018686205,40.3280406892117));
#309=CARTESIAN_POINT('Ctrl Pts',(-1.21399565066755,19.05,40.2715780669196));
#310=CARTESIAN_POINT('Ctrl Pts',(1.21399565066755,19.05,40.2715780669196));
#311=CARTESIAN_POINT('Ctrl Pts',(2.46347869583803,18.9321018686205,40.3280406892117));
#312=CARTESIAN_POINT('Ctrl Pts',(4.93789098193202,18.4420834321053,40.5544683786146));
#313=CARTESIAN_POINT('Ctrl Pts',(6.16288136548004,18.0701336516666,40.7241341783937));
#314=CARTESIAN_POINT('Ctrl Pts',(8.50384082649222,17.0937293349845,41.1435196285758));
#315=CARTESIAN_POINT('Ctrl Pts',(9.62196991126057,16.4885005371127,41.3930732381317));
#316=CARTESIAN_POINT('Ctrl Pts',(11.6864212755781,15.0957117378302,41.921076430285));
#317=CARTESIAN_POINT('Ctrl Pts',(12.6327721289659,14.3079962342416,42.1990039604023));
#318=CARTESIAN_POINT('Ctrl Pts',(14.3068623051389,12.6339060580686,42.7300482083744));
#319=CARTESIAN_POINT('Ctrl Pts',(15.0944288461465,11.6881042316966,43.0025715317211));
#320=CARTESIAN_POINT('Ctrl Pts',(16.4876931291576,9.62338495927761,43.5111870761615));
#321=CARTESIAN_POINT('Ctrl Pts',(17.0934991570565,8.50443591292127,43.7468542906283));
#322=CARTESIAN_POINT('Ctrl Pts',(18.0705654194638,6.16180295252484,44.137794184186));
#323=CARTESIAN_POINT('Ctrl Pts',(18.4426029733687,4.93598127860854,44.2931174811199));
#324=CARTESIAN_POINT('Ctrl Pts',(18.9323964332119,2.46127627795253,44.4992841118199));
#325=CARTESIAN_POINT('Ctrl Pts',(19.05,1.21235218697281,44.55));
#326=CARTESIAN_POINT('Ctrl Pts',(19.05,-1.2123521869728,44.55));
#327=CARTESIAN_POINT('Ctrl Pts',(18.9323964332119,-2.46127627795252,44.4992841118199));
#328=CARTESIAN_POINT('Ctrl Pts',(18.4426029733687,-4.93598127860853,44.2931174811199));
#329=CARTESIAN_POINT('Ctrl Pts',(18.0705654194638,-6.16180295252482,44.137794184186));
#330=CARTESIAN_POINT('Ctrl Pts',(17.0934991570565,-8.50443591292125,43.7468542906283));
#331=CARTESIAN_POINT('Ctrl Pts',(16.4876931291577,-9.62338495927759,43.5111870761615));
#332=CARTESIAN_POINT('Ctrl Pts',(15.0944288461465,-11.6881042316966,43.0025715317211));
#333=CARTESIAN_POINT('Ctrl Pts',(14.3068623051389,-12.6339060580686,42.7300482083744));
#334=CARTESIAN_POINT('Ctrl Pts',(12.6327721289659,-14.3079962342415,42.1990039604023));
#335=CARTESIAN_POINT('Ctrl Pts',(11.6864212755781,-15.0957117378302,41.921076430285));
#336=CARTESIAN_POINT('Ctrl Pts',(9.62196991126059,-16.4885005371127,41.3930732381318));
#337=CARTESIAN_POINT('Ctrl Pts',(8.50384082649223,-17.0937293349845,41.1435196285758));
#338=CARTESIAN_POINT('Ctrl Pts',(6.16288136548004,-18.0701336516666,40.7241341783937));
#339=CARTESIAN_POINT('Ctrl Pts',(4.93789098193202,-18.4420834321053,40.5544683786146));
#340=CARTESIAN_POINT('Ctrl Pts',(2.46347869583803,-18.9321018686205,40.3280406892117));
#341=CARTESIAN_POINT('Ctrl Pts',(1.21399565066755,-19.05,40.2715780669196));
#342=CARTESIAN_POINT('Ctrl Pts',(2.77555756156289E-16,-19.05,40.2715780669196));
#343=CARTESIAN_POINT('Origin',(0.,0.,49.5));
#344=CARTESIAN_POINT('Origin',(-100.,0.,0.));
#345=CARTESIAN_POINT('',(-100.,-44.55,-5.45580149020146E-15));
#346=CARTESIAN_POINT('Origin',(-100.,0.,0.));
#347=CARTESIAN_POINT('Origin',(0.,0.,0.));
#348=CARTESIAN_POINT('',(100.,-44.55,-5.45580149020146E-15));
#349=CARTESIAN_POINT('Origin',(100.,0.,0.));
#350=CARTESIAN_POINT('',(0.,-44.55,-5.45580149020146E-15));
#351=CARTESIAN_POINT('Origin',(100.,0.,0.));
#352=UNCERTAINTY_MEASURE_WITH_UNIT(LENGTH_MEASURE(0.01),#356,
'DISTANCE_ACCURACY_VALUE',
'Maximum model space distance between geometric entities at asserted c
onnectivities');
#353=UNCERTAINTY_MEASURE_WITH_UNIT(LENGTH_MEASURE(0.01),#356,
'DISTANCE_ACCURACY_VALUE',
'Maximum model space distance between geometric entities at asserted c
onnectivities');
#354=(
GEOMETRIC_REPRESENTATION_CONTEXT(3)
GLOBAL_UNCERTAINTY_ASSIGNED_CONTEXT((#352))
GLOBAL_UNIT_ASSIGNED_CONTEXT((#356,#358,#359))
REPRESENTATION_CONTEXT('','3D')
);
#355=(
GEOMETRIC_REPRESENTATION_CONTEXT(3)
GLOBAL_UNCERTAINTY_ASSIGNED_CONTEXT((#353))
GLOBAL_UNIT_ASSIGNED_CONTEXT((#356,#358,#359))
REPRESENTATION_CONTEXT('','3D')
);
#356=(
LENGTH_UNIT()
NAMED_UNIT(*)
SI_UNIT(.MILLI.,.METRE.)
);
#357=(
LENGTH_UNIT()
NAMED_UNIT(*)
SI_UNIT(.CENTI.,.METRE.)
);
#358=(
NAMED_UNIT(*)
PLANE_ANGLE_UNIT()
SI_UNIT($,.RADIAN.)
);
#359=(
NAMED_UNIT(*)
SI_UNIT($,.STERADIAN.)
SOLID_ANGLE_UNIT()
);
#360=SHAPE_DEFINITION_REPRESENTATION(#361,#362);
#361=PRODUCT_DEFINITION_SHAPE('',$,#364);
#362=SHAPE_REPRESENTATION('',(#142),#354);
#363=PRODUCT_DEFINITION_CONTEXT('part definition',#368,'design');
#364=PRODUCT_DEFINITION('T-8 35\X\D715','T-8 35\X\D715',#365,#363);
#365=PRODUCT_DEFINITION_FORMATION('',$,#370);
#366=PRODUCT_RELATED_PRODUCT_CATEGORY('T-8 35\X\D715','T-8 35\X\D715',(#370));
#367=APPLICATION_PROTOCOL_DEFINITION('international standard',
'automotive_design',2009,#368);
#368=APPLICATION_CONTEXT(
'Core Data for Automotive Mechanical Design Process');
#369=PRODUCT_CONTEXT('part definition',#368,'mechanical');
#370=PRODUCT('T-8 35\X\D715','T-8 35\X\D715',$,(#369));
#371=PRESENTATION_STYLE_ASSIGNMENT((#372));
#372=SURFACE_STYLE_USAGE(.BOTH.,#375);
#373=SURFACE_STYLE_RENDERING_WITH_PROPERTIES($,#379,(#374));
#374=SURFACE_STYLE_TRANSPARENT(0.);
#375=SURFACE_SIDE_STYLE('',(#376,#373));
#376=SURFACE_STYLE_FILL_AREA(#377);
#377=FILL_AREA_STYLE('',(#378));
#378=FILL_AREA_STYLE_COLOUR('',#379);
#379=COLOUR_RGB('',0.749019607843137,0.749019607843137,0.749019607843137);
ENDSEC;
END-ISO-10303-21;
