ISO-10303-21;
HEADER;
/* Generated by software containing ST-Developer
 * from STEP Tools, Inc. (www.steptools.com) 
 */

FILE_DESCRIPTION(
/* description */ (''),
/* implementation_level */ '2;1');

FILE_NAME(
/* name */ 
'\\\\Tske00\\w\\Work\\TOSTE\\\X2\7D99624B\X0\\\02_\X2\6EB663A5\X0\\\\X2\6EB663A5752830C130FC30BA\X0\\\
T-8\\T-8 30.stp',
/* time_stamp */ '2022-04-12T15:38:31+09:00',
/* author */ ('3dcad-eng'),
/* organization */ (''),
/* preprocessor_version */ 'ST-DEVELOPER v18.1',
/* originating_system */ 'Autodesk Inventor 2022',
/* authorisation */ '');

FILE_SCHEMA (('AUTOMOTIVE_DESIGN { 1 0 10303 214 3 1 1 }'));
ENDSEC;

DATA;
#10=MECHANICAL_DESIGN_GEOMETRIC_PRESENTATION_REPRESENTATION('',(#16),#269);
#11=CONSTRUCTIVE_GEOMETRY_REPRESENTATION_RELATIONSHIP('CGRR','None',#276,
#12);
#12=CONSTRUCTIVE_GEOMETRY_REPRESENTATION('',(#13),#268);
#13=GEOMETRIC_CURVE_SET('\X2\30B930B130C330C1\X0\2',(#265));
#14=SHAPE_REPRESENTATION_RELATIONSHIP('SRR','None',#276,#15);
#15=ADVANCED_BREP_SHAPE_REPRESENTATION('',(#17),#268);
#16=STYLED_ITEM('',(#285),#17);
#17=MANIFOLD_SOLID_BREP('\X2\30BD30EA30C330C9\X0\1',#142);
#18=FACE_BOUND('',#35,.T.);
#19=FACE_BOUND('',#37,.T.);
#20=FACE_BOUND('',#40,.T.);
#21=PLANE('',#175);
#22=PLANE('',#176);
#23=PLANE('',#180);
#24=FACE_OUTER_BOUND('',#31,.T.);
#25=FACE_OUTER_BOUND('',#32,.T.);
#26=FACE_OUTER_BOUND('',#33,.T.);
#27=FACE_OUTER_BOUND('',#34,.T.);
#28=FACE_OUTER_BOUND('',#36,.T.);
#29=FACE_OUTER_BOUND('',#38,.T.);
#30=FACE_OUTER_BOUND('',#39,.T.);
#31=EDGE_LOOP('',(#95,#96,#97,#98,#99,#100));
#32=EDGE_LOOP('',(#101,#102,#103,#104,#105,#106,#107,#108,#109));
#33=EDGE_LOOP('',(#110,#111,#112,#113,#114,#115));
#34=EDGE_LOOP('',(#116));
#35=EDGE_LOOP('',(#117));
#36=EDGE_LOOP('',(#118));
#37=EDGE_LOOP('',(#119));
#38=EDGE_LOOP('',(#120,#121,#122,#123,#124,#125,#126,#127,#128));
#39=EDGE_LOOP('',(#129));
#40=EDGE_LOOP('',(#130));
#41=CIRCLE('',#165,36.15);
#42=CIRCLE('',#168,36.15);
#43=CIRCLE('',#169,36.15);
#44=CIRCLE('',#171,38.15);
#45=CIRCLE('',#177,38.15);
#46=CIRCLE('',#179,38.15);
#47=LINE('',#235,#53);
#48=LINE('',#241,#54);
#49=LINE('',#243,#55);
#50=LINE('',#249,#56);
#51=LINE('',#262,#57);
#52=LINE('',#263,#58);
#53=VECTOR('',#189,36.15);
#54=VECTOR('',#198,36.15);
#55=VECTOR('',#199,36.15);
#56=VECTOR('',#206,38.15);
#57=VECTOR('',#223,38.15);
#58=VECTOR('',#224,38.15);
#59=ELLIPSE('',#163,51.1238202797874,36.15);
#60=ELLIPSE('',#164,51.1238202797874,36.15);
#61=ELLIPSE('',#166,51.1238202797874,36.15);
#62=ELLIPSE('',#172,53.9522474045336,38.15);
#63=ELLIPSE('',#173,53.9522474045336,38.15);
#64=ELLIPSE('',#174,53.9522474045336,38.15);
#65=VERTEX_POINT('',#229);
#66=VERTEX_POINT('',#230);
#67=VERTEX_POINT('',#232);
#68=VERTEX_POINT('',#234);
#69=VERTEX_POINT('',#239);
#70=VERTEX_POINT('',#242);
#71=VERTEX_POINT('',#246);
#72=VERTEX_POINT('',#248);
#73=VERTEX_POINT('',#250);
#74=VERTEX_POINT('',#252);
#75=VERTEX_POINT('',#257);
#76=VERTEX_POINT('',#260);
#77=EDGE_CURVE('',#65,#66,#59,.T.);
#78=EDGE_CURVE('',#67,#65,#60,.T.);
#79=EDGE_CURVE('',#67,#68,#47,.T.);
#80=EDGE_CURVE('',#68,#68,#41,.T.);
#81=EDGE_CURVE('',#66,#67,#61,.T.);
#82=EDGE_CURVE('',#69,#69,#42,.T.);
#83=EDGE_CURVE('',#69,#65,#48,.T.);
#84=EDGE_CURVE('',#65,#70,#49,.T.);
#85=EDGE_CURVE('',#70,#70,#43,.T.);
#86=EDGE_CURVE('',#71,#71,#44,.T.);
#87=EDGE_CURVE('',#71,#72,#50,.T.);
#88=EDGE_CURVE('',#73,#72,#62,.T.);
#89=EDGE_CURVE('',#74,#73,#63,.T.);
#90=EDGE_CURVE('',#72,#74,#64,.T.);
#91=EDGE_CURVE('',#75,#75,#45,.T.);
#92=EDGE_CURVE('',#76,#76,#46,.T.);
#93=EDGE_CURVE('',#76,#73,#51,.T.);
#94=EDGE_CURVE('',#73,#75,#52,.T.);
#95=ORIENTED_EDGE('',*,*,#77,.F.);
#96=ORIENTED_EDGE('',*,*,#78,.F.);
#97=ORIENTED_EDGE('',*,*,#79,.T.);
#98=ORIENTED_EDGE('',*,*,#80,.F.);
#99=ORIENTED_EDGE('',*,*,#79,.F.);
#100=ORIENTED_EDGE('',*,*,#81,.F.);
#101=ORIENTED_EDGE('',*,*,#82,.F.);
#102=ORIENTED_EDGE('',*,*,#83,.T.);
#103=ORIENTED_EDGE('',*,*,#84,.T.);
#104=ORIENTED_EDGE('',*,*,#85,.F.);
#105=ORIENTED_EDGE('',*,*,#84,.F.);
#106=ORIENTED_EDGE('',*,*,#77,.T.);
#107=ORIENTED_EDGE('',*,*,#81,.T.);
#108=ORIENTED_EDGE('',*,*,#78,.T.);
#109=ORIENTED_EDGE('',*,*,#83,.F.);
#110=ORIENTED_EDGE('',*,*,#86,.F.);
#111=ORIENTED_EDGE('',*,*,#87,.T.);
#112=ORIENTED_EDGE('',*,*,#88,.F.);
#113=ORIENTED_EDGE('',*,*,#89,.F.);
#114=ORIENTED_EDGE('',*,*,#90,.F.);
#115=ORIENTED_EDGE('',*,*,#87,.F.);
#116=ORIENTED_EDGE('',*,*,#86,.T.);
#117=ORIENTED_EDGE('',*,*,#80,.T.);
#118=ORIENTED_EDGE('',*,*,#91,.T.);
#119=ORIENTED_EDGE('',*,*,#82,.T.);
#120=ORIENTED_EDGE('',*,*,#92,.F.);
#121=ORIENTED_EDGE('',*,*,#93,.T.);
#122=ORIENTED_EDGE('',*,*,#94,.T.);
#123=ORIENTED_EDGE('',*,*,#91,.F.);
#124=ORIENTED_EDGE('',*,*,#94,.F.);
#125=ORIENTED_EDGE('',*,*,#88,.T.);
#126=ORIENTED_EDGE('',*,*,#90,.T.);
#127=ORIENTED_EDGE('',*,*,#89,.T.);
#128=ORIENTED_EDGE('',*,*,#93,.F.);
#129=ORIENTED_EDGE('',*,*,#92,.T.);
#130=ORIENTED_EDGE('',*,*,#85,.T.);
#131=CYLINDRICAL_SURFACE('',#162,36.15);
#132=CYLINDRICAL_SURFACE('',#167,36.15);
#133=CYLINDRICAL_SURFACE('',#170,38.15);
#134=CYLINDRICAL_SURFACE('',#178,38.15);
#135=ADVANCED_FACE('',(#24),#131,.F.);
#136=ADVANCED_FACE('',(#25),#132,.F.);
#137=ADVANCED_FACE('',(#26),#133,.T.);
#138=ADVANCED_FACE('',(#27,#18),#21,.T.);
#139=ADVANCED_FACE('',(#28,#19),#22,.F.);
#140=ADVANCED_FACE('',(#29),#134,.T.);
#141=ADVANCED_FACE('',(#30,#20),#23,.T.);
#142=CLOSED_SHELL('',(#135,#136,#137,#138,#139,#140,#141));
#143=DERIVED_UNIT_ELEMENT(#145,1.);
#144=DERIVED_UNIT_ELEMENT(#271,-3.);
#145=(
MASS_UNIT()
NAMED_UNIT(*)
SI_UNIT($,.GRAM.)
);
#146=DERIVED_UNIT((#143,#144));
#147=MEASURE_REPRESENTATION_ITEM('density measure',
POSITIVE_RATIO_MEASURE(1.),#146);
#148=PROPERTY_DEFINITION_REPRESENTATION(#153,#150);
#149=PROPERTY_DEFINITION_REPRESENTATION(#154,#151);
#150=REPRESENTATION('material name',(#152),#268);
#151=REPRESENTATION('density',(#147),#268);
#152=DESCRIPTIVE_REPRESENTATION_ITEM('\X2\4E00822C\X0\','\X2\4E00822C\X0\');
#153=PROPERTY_DEFINITION('material property','material name',#278);
#154=PROPERTY_DEFINITION('material property','density of part',#278);
#155=DATE_TIME_ROLE('creation_date');
#156=APPLIED_DATE_AND_TIME_ASSIGNMENT(#157,#155,(#278));
#157=DATE_AND_TIME(#158,#159);
#158=CALENDAR_DATE(2022,31,3);
#159=LOCAL_TIME(0,0,0.,#160);
#160=COORDINATED_UNIVERSAL_TIME_OFFSET(0,0,.BEHIND.);
#161=AXIS2_PLACEMENT_3D('placement',#227,#181,#182);
#162=AXIS2_PLACEMENT_3D('',#228,#183,#184);
#163=AXIS2_PLACEMENT_3D('',#231,#185,#186);
#164=AXIS2_PLACEMENT_3D('',#233,#187,#188);
#165=AXIS2_PLACEMENT_3D('',#236,#190,#191);
#166=AXIS2_PLACEMENT_3D('',#237,#192,#193);
#167=AXIS2_PLACEMENT_3D('',#238,#194,#195);
#168=AXIS2_PLACEMENT_3D('',#240,#196,#197);
#169=AXIS2_PLACEMENT_3D('',#244,#200,#201);
#170=AXIS2_PLACEMENT_3D('',#245,#202,#203);
#171=AXIS2_PLACEMENT_3D('',#247,#204,#205);
#172=AXIS2_PLACEMENT_3D('',#251,#207,#208);
#173=AXIS2_PLACEMENT_3D('',#253,#209,#210);
#174=AXIS2_PLACEMENT_3D('',#254,#211,#212);
#175=AXIS2_PLACEMENT_3D('',#255,#213,#214);
#176=AXIS2_PLACEMENT_3D('',#256,#215,#216);
#177=AXIS2_PLACEMENT_3D('',#258,#217,#218);
#178=AXIS2_PLACEMENT_3D('',#259,#219,#220);
#179=AXIS2_PLACEMENT_3D('',#261,#221,#222);
#180=AXIS2_PLACEMENT_3D('',#264,#225,#226);
#181=DIRECTION('axis',(0.,0.,1.));
#182=DIRECTION('refdir',(1.,0.,0.));
#183=DIRECTION('center_axis',(0.,0.,1.));
#184=DIRECTION('ref_axis',(1.,0.,0.));
#185=DIRECTION('center_axis',(-0.707106781186548,0.,0.707106781186548));
#186=DIRECTION('ref_axis',(0.707106781186547,0.,0.707106781186547));
#187=DIRECTION('center_axis',(0.707106781186548,0.,0.707106781186548));
#188=DIRECTION('ref_axis',(0.707106781186547,0.,-0.707106781186547));
#189=DIRECTION('',(0.,0.,1.));
#190=DIRECTION('center_axis',(0.,0.,-1.));
#191=DIRECTION('ref_axis',(1.,0.,0.));
#192=DIRECTION('center_axis',(0.707106781186548,0.,0.707106781186548));
#193=DIRECTION('ref_axis',(0.707106781186547,0.,-0.707106781186547));
#194=DIRECTION('center_axis',(1.,0.,0.));
#195=DIRECTION('ref_axis',(0.,1.,0.));
#196=DIRECTION('center_axis',(1.,0.,0.));
#197=DIRECTION('ref_axis',(0.,1.,0.));
#198=DIRECTION('',(1.,0.,0.));
#199=DIRECTION('',(1.,0.,0.));
#200=DIRECTION('center_axis',(-1.,0.,0.));
#201=DIRECTION('ref_axis',(0.,1.,0.));
#202=DIRECTION('center_axis',(0.,0.,1.));
#203=DIRECTION('ref_axis',(1.,0.,0.));
#204=DIRECTION('center_axis',(0.,0.,1.));
#205=DIRECTION('ref_axis',(1.,0.,0.));
#206=DIRECTION('',(0.,0.,-1.));
#207=DIRECTION('center_axis',(-0.707106781186548,0.,-0.707106781186548));
#208=DIRECTION('ref_axis',(0.707106781186547,0.,-0.707106781186547));
#209=DIRECTION('center_axis',(0.707106781186548,0.,-0.707106781186548));
#210=DIRECTION('ref_axis',(0.707106781186547,0.,0.707106781186547));
#211=DIRECTION('center_axis',(-0.707106781186548,0.,-0.707106781186548));
#212=DIRECTION('ref_axis',(0.707106781186547,0.,-0.707106781186547));
#213=DIRECTION('center_axis',(0.,0.,1.));
#214=DIRECTION('ref_axis',(1.,0.,0.));
#215=DIRECTION('center_axis',(1.,0.,0.));
#216=DIRECTION('ref_axis',(0.,0.,-1.));
#217=DIRECTION('center_axis',(-1.,0.,0.));
#218=DIRECTION('ref_axis',(0.,1.,0.));
#219=DIRECTION('center_axis',(1.,0.,0.));
#220=DIRECTION('ref_axis',(0.,1.,0.));
#221=DIRECTION('center_axis',(1.,0.,0.));
#222=DIRECTION('ref_axis',(0.,1.,0.));
#223=DIRECTION('',(-1.,0.,0.));
#224=DIRECTION('',(-1.,0.,0.));
#225=DIRECTION('center_axis',(1.,0.,0.));
#226=DIRECTION('ref_axis',(0.,0.,-1.));
#227=CARTESIAN_POINT('',(0.,0.,0.));
#228=CARTESIAN_POINT('Origin',(0.,0.,0.));
#229=CARTESIAN_POINT('',(0.,-36.15,0.));
#230=CARTESIAN_POINT('',(0.,36.15,0.));
#231=CARTESIAN_POINT('Origin',(0.,0.,0.));
#232=CARTESIAN_POINT('',(-36.15,-4.42709817891768E-15,36.15));
#233=CARTESIAN_POINT('Origin',(0.,0.,0.));
#234=CARTESIAN_POINT('',(-36.15,4.42709817891768E-15,42.2));
#235=CARTESIAN_POINT('',(-36.15,-4.42709817891768E-15,0.));
#236=CARTESIAN_POINT('Origin',(0.,0.,42.2));
#237=CARTESIAN_POINT('Origin',(0.,0.,0.));
#238=CARTESIAN_POINT('Origin',(0.,0.,0.));
#239=CARTESIAN_POINT('',(-90.,-36.15,-4.42709817891768E-15));
#240=CARTESIAN_POINT('Origin',(-90.,0.,0.));
#241=CARTESIAN_POINT('',(0.,-36.15,-4.42709817891768E-15));
#242=CARTESIAN_POINT('',(90.,-36.15,4.42709817891768E-15));
#243=CARTESIAN_POINT('',(0.,-36.15,-4.42709817891768E-15));
#244=CARTESIAN_POINT('Origin',(90.,0.,0.));
#245=CARTESIAN_POINT('Origin',(0.,0.,0.));
#246=CARTESIAN_POINT('',(-38.15,-4.67202753874715E-15,42.2));
#247=CARTESIAN_POINT('Origin',(0.,0.,42.2));
#248=CARTESIAN_POINT('',(-38.15,-4.67202753874715E-15,38.15));
#249=CARTESIAN_POINT('',(-38.15,-4.67202753874715E-15,0.));
#250=CARTESIAN_POINT('',(0.,-38.15,0.));
#251=CARTESIAN_POINT('Origin',(0.,0.,0.));
#252=CARTESIAN_POINT('',(0.,38.15,0.));
#253=CARTESIAN_POINT('Origin',(0.,0.,0.));
#254=CARTESIAN_POINT('Origin',(0.,0.,0.));
#255=CARTESIAN_POINT('Origin',(0.,0.,42.2));
#256=CARTESIAN_POINT('Origin',(-90.,0.,0.));
#257=CARTESIAN_POINT('',(-90.,-38.15,-4.67202753874715E-15));
#258=CARTESIAN_POINT('Origin',(-90.,0.,0.));
#259=CARTESIAN_POINT('Origin',(0.,0.,0.));
#260=CARTESIAN_POINT('',(90.,-38.15,-4.67202753874715E-15));
#261=CARTESIAN_POINT('Origin',(90.,0.,0.));
#262=CARTESIAN_POINT('',(0.,-38.15,-4.67202753874715E-15));
#263=CARTESIAN_POINT('',(0.,-38.15,-4.67202753874715E-15));
#264=CARTESIAN_POINT('Origin',(90.,0.,0.));
#265=CARTESIAN_POINT('',(0.,0.,0.));
#266=UNCERTAINTY_MEASURE_WITH_UNIT(LENGTH_MEASURE(0.01),#270,
'DISTANCE_ACCURACY_VALUE',
'Maximum model space distance between geometric entities at asserted c
onnectivities');
#267=UNCERTAINTY_MEASURE_WITH_UNIT(LENGTH_MEASURE(0.01),#270,
'DISTANCE_ACCURACY_VALUE',
'Maximum model space distance between geometric entities at asserted c
onnectivities');
#268=(
GEOMETRIC_REPRESENTATION_CONTEXT(3)
GLOBAL_UNCERTAINTY_ASSIGNED_CONTEXT((#266))
GLOBAL_UNIT_ASSIGNED_CONTEXT((#270,#272,#273))
REPRESENTATION_CONTEXT('','3D')
);
#269=(
GEOMETRIC_REPRESENTATION_CONTEXT(3)
GLOBAL_UNCERTAINTY_ASSIGNED_CONTEXT((#267))
GLOBAL_UNIT_ASSIGNED_CONTEXT((#270,#272,#273))
REPRESENTATION_CONTEXT('','3D')
);
#270=(
LENGTH_UNIT()
NAMED_UNIT(*)
SI_UNIT(.MILLI.,.METRE.)
);
#271=(
LENGTH_UNIT()
NAMED_UNIT(*)
SI_UNIT(.CENTI.,.METRE.)
);
#272=(
NAMED_UNIT(*)
PLANE_ANGLE_UNIT()
SI_UNIT($,.RADIAN.)
);
#273=(
NAMED_UNIT(*)
SI_UNIT($,.STERADIAN.)
SOLID_ANGLE_UNIT()
);
#274=SHAPE_DEFINITION_REPRESENTATION(#275,#276);
#275=PRODUCT_DEFINITION_SHAPE('',$,#278);
#276=SHAPE_REPRESENTATION('',(#161),#268);
#277=PRODUCT_DEFINITION_CONTEXT('part definition',#282,'design');
#278=PRODUCT_DEFINITION('T-8 30','T-8 30',#279,#277);
#279=PRODUCT_DEFINITION_FORMATION('',$,#284);
#280=PRODUCT_RELATED_PRODUCT_CATEGORY('T-8 30','T-8 30',(#284));
#281=APPLICATION_PROTOCOL_DEFINITION('international standard',
'automotive_design',2009,#282);
#282=APPLICATION_CONTEXT(
'Core Data for Automotive Mechanical Design Process');
#283=PRODUCT_CONTEXT('part definition',#282,'mechanical');
#284=PRODUCT('T-8 30','T-8 30',$,(#283));
#285=PRESENTATION_STYLE_ASSIGNMENT((#287));
#286=PRESENTATION_STYLE_ASSIGNMENT((#288));
#287=SURFACE_STYLE_USAGE(.BOTH.,#291);
#288=SURFACE_STYLE_USAGE(.BOTH.,#292);
#289=SURFACE_STYLE_RENDERING_WITH_PROPERTIES($,#299,(#290));
#290=SURFACE_STYLE_TRANSPARENT(0.);
#291=SURFACE_SIDE_STYLE('',(#293,#289));
#292=SURFACE_SIDE_STYLE('',(#294));
#293=SURFACE_STYLE_FILL_AREA(#295);
#294=SURFACE_STYLE_FILL_AREA(#296);
#295=FILL_AREA_STYLE('',(#297));
#296=FILL_AREA_STYLE('',(#298));
#297=FILL_AREA_STYLE_COLOUR('',#299);
#298=FILL_AREA_STYLE_COLOUR('',#300);
#299=COLOUR_RGB('',0.749019607843137,0.749019607843137,0.749019607843137);
#300=COLOUR_RGB('',0.913725490196078,0.454901960784314,0.);
ENDSEC;
END-ISO-10303-21;
