ISO-10303-21;
HEADER;
/* Generated by software containing ST-Developer
 * from STEP Tools, Inc. (www.steptools.com) 
 */

FILE_DESCRIPTION(
/* description */ (''),
/* implementation_level */ '2;1');

FILE_NAME(
/* name */ 
'\\\\Tske00\\w\\Work\\TOSTE\\\X2\7D99624B\X0\\\02_\X2\6EB663A5\X0\\\\X2\6EB663A5752830C130FC30BA\X0\\\
T-8\\T-8 25\X\D720.stp',
/* time_stamp */ '2022-04-28T09:31:56+09:00',
/* author */ ('3dcad-eng'),
/* organization */ (''),
/* preprocessor_version */ 'ST-DEVELOPER v18.1',
/* originating_system */ 'Autodesk Inventor 2022',
/* authorisation */ '');

FILE_SCHEMA (('AUTOMOTIVE_DESIGN { 1 0 10303 214 3 1 1 }'));
ENDSEC;

DATA;
#10=MECHANICAL_DESIGN_GEOMETRIC_PRESENTATION_REPRESENTATION('',(#13),#355);
#11=SHAPE_REPRESENTATION_RELATIONSHIP('SRR','None',#362,#12);
#12=ADVANCED_BREP_SHAPE_REPRESENTATION('',(#14),#354);
#13=STYLED_ITEM('',(#371),#14);
#14=MANIFOLD_SOLID_BREP('\X2\30BD30EA30C330C9\X0\1',#123);
#15=PLANE('',#150);
#16=PLANE('',#151);
#17=PLANE('',#155);
#18=FACE_BOUND('',#32,.T.);
#19=FACE_BOUND('',#35,.T.);
#20=FACE_BOUND('',#37,.T.);
#21=FACE_BOUND('',#39,.T.);
#22=FACE_BOUND('',#41,.T.);
#23=FACE_OUTER_BOUND('',#30,.T.);
#24=FACE_OUTER_BOUND('',#31,.T.);
#25=FACE_OUTER_BOUND('',#33,.T.);
#26=FACE_OUTER_BOUND('',#34,.T.);
#27=FACE_OUTER_BOUND('',#36,.T.);
#28=FACE_OUTER_BOUND('',#38,.T.);
#29=FACE_OUTER_BOUND('',#40,.T.);
#30=EDGE_LOOP('',(#84,#85,#86,#87,#88));
#31=EDGE_LOOP('',(#89,#90,#91,#92));
#32=EDGE_LOOP('',(#93,#94));
#33=EDGE_LOOP('',(#95,#96,#97,#98,#99));
#34=EDGE_LOOP('',(#100));
#35=EDGE_LOOP('',(#101));
#36=EDGE_LOOP('',(#102));
#37=EDGE_LOOP('',(#103));
#38=EDGE_LOOP('',(#104,#105,#106,#107));
#39=EDGE_LOOP('',(#108,#109));
#40=EDGE_LOOP('',(#110));
#41=EDGE_LOOP('',(#111));
#42=CIRCLE('',#144,23.9);
#43=CIRCLE('',#146,29.75);
#44=CIRCLE('',#147,29.75);
#45=CIRCLE('',#149,25.4);
#46=CIRCLE('',#152,31.75);
#47=CIRCLE('',#154,31.75);
#48=LINE('',#261,#52);
#49=LINE('',#267,#53);
#50=LINE('',#273,#54);
#51=LINE('',#350,#55);
#52=VECTOR('',#160,23.9);
#53=VECTOR('',#167,29.75);
#54=VECTOR('',#174,25.4);
#55=VECTOR('',#185,31.75);
#56=B_SPLINE_CURVE_WITH_KNOTS('',3,(#192,#193,#194,#195,#196,#197,#198,
#199,#200,#201,#202,#203,#204,#205,#206,#207,#208,#209,#210,#211,#212,#213,
#214,#215,#216,#217,#218,#219,#220,#221,#222,#223,#224,#225,#226,#227,#228,
#229,#230,#231,#232,#233,#234,#235,#236,#237,#238,#239,#240,#241),
 .UNSPECIFIED.,.F.,.F.,(4,2,2,2,2,2,2,2,2,2,2,2,2,2,2,2,2,2,2,2,2,2,2,2,
4),(0.,0.490813333912953,0.981626667825905,1.47244000173886,1.96325333565181,
2.43838932522959,2.91352531480737,3.38866130438515,3.86379729396293,4.33893328354071,
4.81406927311849,5.28920526269627,5.76434125227405,6.255154586187,6.74596792009996,
7.23678125401291,7.72759458792586,8.21840792183881,8.70922125575177,9.20003458966472,
9.69084792357767,10.1659839131555,10.6411199027332,11.116255892311,11.5913918818888),
 .UNSPECIFIED.);
#57=B_SPLINE_CURVE_WITH_KNOTS('',3,(#242,#243,#244,#245,#246,#247,#248,
#249,#250,#251,#252,#253,#254,#255,#256,#257,#258,#259),.UNSPECIFIED.,.F.,
 .F.,(4,2,2,2,2,2,2,2,4),(11.5913918818888,12.0665278714666,12.5416638610444,
13.0167998506221,13.4919358401999,13.9827491741129,14.4735625080258,14.9643758419388,
15.4551891758517),.UNSPECIFIED.);
#58=B_SPLINE_CURVE_WITH_KNOTS('',3,(#275,#276,#277,#278,#279,#280,#281,
#282,#283,#284,#285,#286,#287,#288,#289,#290,#291,#292),.UNSPECIFIED.,.F.,
 .F.,(4,2,2,2,2,2,2,2,4),(0.,0.520886411420873,1.04177282284175,1.56265923426262,
2.08354564568349,2.58823157409574,3.09291750250798,3.59760343092023,4.10228935933247),
 .UNSPECIFIED.);
#59=B_SPLINE_CURVE_WITH_KNOTS('',3,(#293,#294,#295,#296,#297,#298,#299,
#300,#301,#302,#303,#304,#305,#306,#307,#308,#309,#310,#311,#312,#313,#314,
#315,#316,#317,#318,#319,#320,#321,#322,#323,#324,#325,#326,#327,#328,#329,
#330,#331,#332,#333,#334,#335,#336,#337,#338,#339,#340,#341,#342),
 .UNSPECIFIED.,.F.,.F.,(4,2,2,2,2,2,2,2,2,2,2,2,2,2,2,2,2,2,2,2,2,2,2,2,
4),(4.10228935933247,4.60697528774472,5.11166121615696,5.6163471445692,
6.12103307298145,6.64191948440232,7.16280589582319,7.68369230724407,8.20457871866494,
8.72546513008581,9.24635154150669,9.76723795292756,10.2881243643484,10.7928102927607,
11.2974962211729,11.8021821495852,12.3068680779974,12.8115540064097,13.3162399348219,
13.8209258632341,14.3256117916464,14.8464982030673,15.3673846144881,15.888271025909,
16.4091574373299),.UNSPECIFIED.);
#60=VERTEX_POINT('',#190);
#61=VERTEX_POINT('',#191);
#62=VERTEX_POINT('',#260);
#63=VERTEX_POINT('',#264);
#64=VERTEX_POINT('',#266);
#65=VERTEX_POINT('',#270);
#66=VERTEX_POINT('',#272);
#67=VERTEX_POINT('',#274);
#68=VERTEX_POINT('',#345);
#69=VERTEX_POINT('',#348);
#70=EDGE_CURVE('',#60,#61,#56,.T.);
#71=EDGE_CURVE('',#61,#60,#57,.T.);
#72=EDGE_CURVE('',#61,#62,#48,.T.);
#73=EDGE_CURVE('',#62,#62,#42,.T.);
#74=EDGE_CURVE('',#63,#63,#43,.T.);
#75=EDGE_CURVE('',#63,#64,#49,.T.);
#76=EDGE_CURVE('',#64,#64,#44,.T.);
#77=EDGE_CURVE('',#65,#65,#45,.T.);
#78=EDGE_CURVE('',#65,#66,#50,.T.);
#79=EDGE_CURVE('',#67,#66,#58,.T.);
#80=EDGE_CURVE('',#66,#67,#59,.T.);
#81=EDGE_CURVE('',#68,#68,#46,.T.);
#82=EDGE_CURVE('',#69,#69,#47,.T.);
#83=EDGE_CURVE('',#69,#68,#51,.T.);
#84=ORIENTED_EDGE('',*,*,#70,.F.);
#85=ORIENTED_EDGE('',*,*,#71,.F.);
#86=ORIENTED_EDGE('',*,*,#72,.T.);
#87=ORIENTED_EDGE('',*,*,#73,.F.);
#88=ORIENTED_EDGE('',*,*,#72,.F.);
#89=ORIENTED_EDGE('',*,*,#74,.F.);
#90=ORIENTED_EDGE('',*,*,#75,.T.);
#91=ORIENTED_EDGE('',*,*,#76,.F.);
#92=ORIENTED_EDGE('',*,*,#75,.F.);
#93=ORIENTED_EDGE('',*,*,#70,.T.);
#94=ORIENTED_EDGE('',*,*,#71,.T.);
#95=ORIENTED_EDGE('',*,*,#77,.F.);
#96=ORIENTED_EDGE('',*,*,#78,.T.);
#97=ORIENTED_EDGE('',*,*,#79,.F.);
#98=ORIENTED_EDGE('',*,*,#80,.F.);
#99=ORIENTED_EDGE('',*,*,#78,.F.);
#100=ORIENTED_EDGE('',*,*,#77,.T.);
#101=ORIENTED_EDGE('',*,*,#73,.T.);
#102=ORIENTED_EDGE('',*,*,#81,.T.);
#103=ORIENTED_EDGE('',*,*,#74,.T.);
#104=ORIENTED_EDGE('',*,*,#82,.F.);
#105=ORIENTED_EDGE('',*,*,#83,.T.);
#106=ORIENTED_EDGE('',*,*,#81,.F.);
#107=ORIENTED_EDGE('',*,*,#83,.F.);
#108=ORIENTED_EDGE('',*,*,#79,.T.);
#109=ORIENTED_EDGE('',*,*,#80,.T.);
#110=ORIENTED_EDGE('',*,*,#82,.T.);
#111=ORIENTED_EDGE('',*,*,#76,.T.);
#112=CYLINDRICAL_SURFACE('',#143,23.9);
#113=CYLINDRICAL_SURFACE('',#145,29.75);
#114=CYLINDRICAL_SURFACE('',#148,25.4);
#115=CYLINDRICAL_SURFACE('',#153,31.75);
#116=ADVANCED_FACE('',(#23),#112,.F.);
#117=ADVANCED_FACE('',(#24,#18),#113,.F.);
#118=ADVANCED_FACE('',(#25),#114,.T.);
#119=ADVANCED_FACE('',(#26,#19),#15,.T.);
#120=ADVANCED_FACE('',(#27,#20),#16,.F.);
#121=ADVANCED_FACE('',(#28,#21),#115,.T.);
#122=ADVANCED_FACE('',(#29,#22),#17,.T.);
#123=CLOSED_SHELL('',(#116,#117,#118,#119,#120,#121,#122));
#124=DERIVED_UNIT_ELEMENT(#126,1.);
#125=DERIVED_UNIT_ELEMENT(#357,-3.);
#126=(
MASS_UNIT()
NAMED_UNIT(*)
SI_UNIT($,.GRAM.)
);
#127=DERIVED_UNIT((#124,#125));
#128=MEASURE_REPRESENTATION_ITEM('density measure',
POSITIVE_RATIO_MEASURE(1.),#127);
#129=PROPERTY_DEFINITION_REPRESENTATION(#134,#131);
#130=PROPERTY_DEFINITION_REPRESENTATION(#135,#132);
#131=REPRESENTATION('material name',(#133),#354);
#132=REPRESENTATION('density',(#128),#354);
#133=DESCRIPTIVE_REPRESENTATION_ITEM('\X2\4E00822C\X0\','\X2\4E00822C\X0\');
#134=PROPERTY_DEFINITION('material property','material name',#364);
#135=PROPERTY_DEFINITION('material property','density of part',#364);
#136=DATE_TIME_ROLE('creation_date');
#137=APPLIED_DATE_AND_TIME_ASSIGNMENT(#138,#136,(#364));
#138=DATE_AND_TIME(#139,#140);
#139=CALENDAR_DATE(2022,31,3);
#140=LOCAL_TIME(0,0,0.,#141);
#141=COORDINATED_UNIVERSAL_TIME_OFFSET(0,0,.BEHIND.);
#142=AXIS2_PLACEMENT_3D('placement',#188,#156,#157);
#143=AXIS2_PLACEMENT_3D('',#189,#158,#159);
#144=AXIS2_PLACEMENT_3D('',#262,#161,#162);
#145=AXIS2_PLACEMENT_3D('',#263,#163,#164);
#146=AXIS2_PLACEMENT_3D('',#265,#165,#166);
#147=AXIS2_PLACEMENT_3D('',#268,#168,#169);
#148=AXIS2_PLACEMENT_3D('',#269,#170,#171);
#149=AXIS2_PLACEMENT_3D('',#271,#172,#173);
#150=AXIS2_PLACEMENT_3D('',#343,#175,#176);
#151=AXIS2_PLACEMENT_3D('',#344,#177,#178);
#152=AXIS2_PLACEMENT_3D('',#346,#179,#180);
#153=AXIS2_PLACEMENT_3D('',#347,#181,#182);
#154=AXIS2_PLACEMENT_3D('',#349,#183,#184);
#155=AXIS2_PLACEMENT_3D('',#351,#186,#187);
#156=DIRECTION('axis',(0.,0.,1.));
#157=DIRECTION('refdir',(1.,0.,0.));
#158=DIRECTION('center_axis',(0.,0.,1.));
#159=DIRECTION('ref_axis',(1.,0.,0.));
#160=DIRECTION('',(0.,0.,1.));
#161=DIRECTION('center_axis',(0.,0.,-1.));
#162=DIRECTION('ref_axis',(1.,0.,0.));
#163=DIRECTION('center_axis',(1.,0.,0.));
#164=DIRECTION('ref_axis',(0.,1.,0.));
#165=DIRECTION('center_axis',(1.,0.,0.));
#166=DIRECTION('ref_axis',(0.,1.,0.));
#167=DIRECTION('',(1.,0.,0.));
#168=DIRECTION('center_axis',(-1.,0.,0.));
#169=DIRECTION('ref_axis',(0.,1.,0.));
#170=DIRECTION('center_axis',(0.,0.,1.));
#171=DIRECTION('ref_axis',(1.,0.,0.));
#172=DIRECTION('center_axis',(0.,0.,1.));
#173=DIRECTION('ref_axis',(1.,0.,0.));
#174=DIRECTION('',(0.,0.,-1.));
#175=DIRECTION('center_axis',(0.,0.,1.));
#176=DIRECTION('ref_axis',(1.,0.,0.));
#177=DIRECTION('center_axis',(1.,0.,0.));
#178=DIRECTION('ref_axis',(0.,0.,-1.));
#179=DIRECTION('center_axis',(-1.,0.,0.));
#180=DIRECTION('ref_axis',(0.,1.,0.));
#181=DIRECTION('center_axis',(1.,0.,0.));
#182=DIRECTION('ref_axis',(0.,1.,0.));
#183=DIRECTION('center_axis',(1.,0.,0.));
#184=DIRECTION('ref_axis',(0.,1.,0.));
#185=DIRECTION('',(-1.,0.,0.));
#186=DIRECTION('center_axis',(1.,0.,0.));
#187=DIRECTION('ref_axis',(0.,0.,-1.));
#188=CARTESIAN_POINT('',(0.,0.,0.));
#189=CARTESIAN_POINT('Origin',(0.,0.,0.));
#190=CARTESIAN_POINT('',(5.55111512312578E-16,-23.9,17.7158827045112));
#191=CARTESIAN_POINT('',(-23.9,-7.56741441996415E-17,29.75));
#192=CARTESIAN_POINT('Ctrl Pts',(5.55111512312578E-16,-23.9,17.7158827045112));
#193=CARTESIAN_POINT('Ctrl Pts',(1.63604444637651,-23.9,17.7158827045112));
#194=CARTESIAN_POINT('Ctrl Pts',(3.25672050376778,-23.7311978286668,17.9490213051605));
#195=CARTESIAN_POINT('Ctrl Pts',(6.3944733664863,-23.0843386616776,18.7736630074171));
#196=CARTESIAN_POINT('Ctrl Pts',(7.91274216971862,-22.6064614971868,19.3607653196541));
#197=CARTESIAN_POINT('Ctrl Pts',(10.7956176337224,-21.3803237168409,20.7068366367273));
#198=CARTESIAN_POINT('Ctrl Pts',(12.1622205970467,-20.6308848782998,21.4651767174092));
#199=CARTESIAN_POINT('Ctrl Pts',(14.6946974129173,-18.9108140609981,22.9949632395672));
#200=CARTESIAN_POINT('Ctrl Pts',(15.8602161638477,-17.9394879768693,23.7662169842021));
#201=CARTESIAN_POINT('Ctrl Pts',(17.9062803825286,-15.8934237581883,25.1785039942921));
#202=CARTESIAN_POINT('Ctrl Pts',(18.8693620489064,-14.7479058490671,25.8760972898093));
#203=CARTESIAN_POINT('Ctrl Pts',(20.5967357307898,-12.2199847996925,27.1614636831139));
#204=CARTESIAN_POINT('Ctrl Pts',(21.3610583797449,-10.8373623736921,27.7487642926357));
#205=CARTESIAN_POINT('Ctrl Pts',(22.6094816718011,-7.90914683670388,28.7208593330322));
#206=CARTESIAN_POINT('Ctrl Pts',(23.0946607812078,-6.36013638622091,29.1063214900628));
#207=CARTESIAN_POINT('Ctrl Pts',(23.7400639509204,-3.19750763653802,29.6210268302404));
#208=CARTESIAN_POINT('Ctrl Pts',(23.9,-1.58378663192593,29.75));
#209=CARTESIAN_POINT('Ctrl Pts',(23.9,1.58378663192593,29.75));
#210=CARTESIAN_POINT('Ctrl Pts',(23.7400639509204,3.19750763653802,29.6210268302404));
#211=CARTESIAN_POINT('Ctrl Pts',(23.0946607812078,6.36013638622091,29.1063214900628));
#212=CARTESIAN_POINT('Ctrl Pts',(22.6094816718011,7.90914683670388,28.7208593330322));
#213=CARTESIAN_POINT('Ctrl Pts',(21.3610583797449,10.8373623736921,27.7487642926357));
#214=CARTESIAN_POINT('Ctrl Pts',(20.5967357307898,12.2199847996926,27.1614636831139));
#215=CARTESIAN_POINT('Ctrl Pts',(18.8693620489064,14.7479058490671,25.8760972898093));
#216=CARTESIAN_POINT('Ctrl Pts',(17.9062803825286,15.8934237581883,25.1785039942921));
#217=CARTESIAN_POINT('Ctrl Pts',(15.8602161638477,17.9394879768693,23.7662169842021));
#218=CARTESIAN_POINT('Ctrl Pts',(14.6946974129173,18.9108140609981,22.9949632395672));
#219=CARTESIAN_POINT('Ctrl Pts',(12.1622205970467,20.6308848782998,21.4651767174092));
#220=CARTESIAN_POINT('Ctrl Pts',(10.7956176337224,21.3803237168409,20.7068366367273));
#221=CARTESIAN_POINT('Ctrl Pts',(7.91274216971862,22.6064614971868,19.3607653196541));
#222=CARTESIAN_POINT('Ctrl Pts',(6.3944733664863,23.0843386616776,18.7736630074171));
#223=CARTESIAN_POINT('Ctrl Pts',(3.25672050376778,23.7311978286668,17.9490213051605));
#224=CARTESIAN_POINT('Ctrl Pts',(1.63604444637651,23.9,17.7158827045112));
#225=CARTESIAN_POINT('Ctrl Pts',(-1.63604444637651,23.9,17.7158827045112));
#226=CARTESIAN_POINT('Ctrl Pts',(-3.25672050376778,23.7311978286668,17.9490213051605));
#227=CARTESIAN_POINT('Ctrl Pts',(-6.39447336648629,23.0843386616776,18.7736630074171));
#228=CARTESIAN_POINT('Ctrl Pts',(-7.91274216971861,22.6064614971868,19.3607653196541));
#229=CARTESIAN_POINT('Ctrl Pts',(-10.7956176337224,21.3803237168409,20.7068366367273));
#230=CARTESIAN_POINT('Ctrl Pts',(-12.1622205970467,20.6308848782998,21.4651767174092));
#231=CARTESIAN_POINT('Ctrl Pts',(-14.6946974129173,18.9108140609981,22.9949632395672));
#232=CARTESIAN_POINT('Ctrl Pts',(-15.8602161638477,17.9394879768693,23.7662169842021));
#233=CARTESIAN_POINT('Ctrl Pts',(-17.9062803825286,15.8934237581883,25.1785039942921));
#234=CARTESIAN_POINT('Ctrl Pts',(-18.8693620489064,14.7479058490671,25.8760972898093));
#235=CARTESIAN_POINT('Ctrl Pts',(-20.5967357307898,12.2199847996925,27.1614636831139));
#236=CARTESIAN_POINT('Ctrl Pts',(-21.3610583797449,10.8373623736921,27.7487642926357));
#237=CARTESIAN_POINT('Ctrl Pts',(-22.6094816718011,7.90914683670387,28.7208593330322));
#238=CARTESIAN_POINT('Ctrl Pts',(-23.0946607812078,6.3601363862209,29.1063214900628));
#239=CARTESIAN_POINT('Ctrl Pts',(-23.7400639509204,3.19750763653802,29.6210268302404));
#240=CARTESIAN_POINT('Ctrl Pts',(-23.9,1.58378663192594,29.75));
#241=CARTESIAN_POINT('Ctrl Pts',(-23.9,3.33066907387547E-15,29.75));
#242=CARTESIAN_POINT('Ctrl Pts',(-23.9,2.22044604925031E-15,29.75));
#243=CARTESIAN_POINT('Ctrl Pts',(-23.9,-1.58378663192593,29.75));
#244=CARTESIAN_POINT('Ctrl Pts',(-23.7400639509204,-3.19750763653801,29.6210268302404));
#245=CARTESIAN_POINT('Ctrl Pts',(-23.0946607812078,-6.3601363862209,29.1063214900628));
#246=CARTESIAN_POINT('Ctrl Pts',(-22.6094816718011,-7.90914683670386,28.7208593330322));
#247=CARTESIAN_POINT('Ctrl Pts',(-21.3610583797449,-10.8373623736921,27.7487642926357));
#248=CARTESIAN_POINT('Ctrl Pts',(-20.5967357307898,-12.2199847996925,27.1614636831139));
#249=CARTESIAN_POINT('Ctrl Pts',(-18.8693620489064,-14.747905849067,25.8760972898093));
#250=CARTESIAN_POINT('Ctrl Pts',(-17.9062803825286,-15.8934237581883,25.1785039942921));
#251=CARTESIAN_POINT('Ctrl Pts',(-15.8602161638477,-17.9394879768693,23.7662169842021));
#252=CARTESIAN_POINT('Ctrl Pts',(-14.6946974129173,-18.9108140609981,22.9949632395672));
#253=CARTESIAN_POINT('Ctrl Pts',(-12.1622205970467,-20.6308848782998,21.4651767174092));
#254=CARTESIAN_POINT('Ctrl Pts',(-10.7956176337224,-21.3803237168409,20.7068366367273));
#255=CARTESIAN_POINT('Ctrl Pts',(-7.91274216971863,-22.6064614971868,19.3607653196541));
#256=CARTESIAN_POINT('Ctrl Pts',(-6.3944733664863,-23.0843386616776,18.7736630074171));
#257=CARTESIAN_POINT('Ctrl Pts',(-3.25672050376779,-23.7311978286668,17.9490213051605));
#258=CARTESIAN_POINT('Ctrl Pts',(-1.63604444637651,-23.9,17.7158827045112));
#259=CARTESIAN_POINT('Ctrl Pts',(-2.77555756156289E-16,-23.9,17.7158827045112));
#260=CARTESIAN_POINT('',(-23.9,2.92690584996217E-15,36.));
#261=CARTESIAN_POINT('',(-23.9,-2.92690584996217E-15,0.));
#262=CARTESIAN_POINT('Origin',(0.,0.,36.));
#263=CARTESIAN_POINT('Origin',(0.,0.,0.));
#264=CARTESIAN_POINT('',(-85.,-29.75,-3.64332422746338E-15));
#265=CARTESIAN_POINT('Origin',(-85.,0.,0.));
#266=CARTESIAN_POINT('',(85.,-29.75,3.64332422746338E-15));
#267=CARTESIAN_POINT('',(0.,-29.75,-3.64332422746338E-15));
#268=CARTESIAN_POINT('Origin',(85.,0.,0.));
#269=CARTESIAN_POINT('Origin',(0.,0.,0.));
#270=CARTESIAN_POINT('',(-25.4,-3.11060286983428E-15,36.));
#271=CARTESIAN_POINT('Origin',(0.,0.,36.));
#272=CARTESIAN_POINT('',(-25.4,-3.49819172801116E-15,31.75));
#273=CARTESIAN_POINT('',(-25.4,-3.11060286983428E-15,0.));
#274=CARTESIAN_POINT('',(-5.55111512312578E-16,-25.4,19.05));
#275=CARTESIAN_POINT('Ctrl Pts',(-5.55111512312578E-16,-25.4,19.05));
#276=CARTESIAN_POINT('Ctrl Pts',(-1.73628803806958,-25.4,19.05));
#277=CARTESIAN_POINT('Ctrl Pts',(-3.45804849558174,-25.2210281485333,19.2942463749345));
#278=CARTESIAN_POINT('Ctrl Pts',(-6.79291988546417,-24.5339479568855,20.1606944151517));
#279=CARTESIAN_POINT('Ctrl Pts',(-8.40726276828531,-24.0260545371048,20.7783183580122));
#280=CARTESIAN_POINT('Ctrl Pts',(-11.4723309242416,-22.7226540506207,22.1961885662096));
#281=CARTESIAN_POINT('Ctrl Pts',(-12.9252655214257,-21.9258957756687,22.9957514263878));
#282=CARTESIAN_POINT('Ctrl Pts',(-15.6172147455786,-20.0975122275819,24.6097438424604));
#283=CARTESIAN_POINT('Ctrl Pts',(-16.8558701478764,-19.0651543364002,25.4239424976531));
#284=CARTESIAN_POINT('Ctrl Pts',(-19.0307980255302,-16.8902264587464,26.9159307128716));
#285=CARTESIAN_POINT('Ctrl Pts',(-20.0546970868864,-15.6721906303701,27.6534333302818));
#286=CARTESIAN_POINT('Ctrl Pts',(-21.8907705987462,-12.9847062817792,29.0125375814254));
#287=CARTESIAN_POINT('Ctrl Pts',(-22.7029802549921,-11.5150257254248,29.6336327700378));
#288=CARTESIAN_POINT('Ctrl Pts',(-24.0294000045497,-8.4029218414724,30.6616851636326));
#289=CARTESIAN_POINT('Ctrl Pts',(-24.5447540697152,-6.75687438696941,31.0693427150316));
#290=CARTESIAN_POINT('Ctrl Pts',(-25.230206844083,-3.39661102592515,31.6136432857178));
#291=CARTESIAN_POINT('Ctrl Pts',(-25.4,-1.68228642804082,31.75));
#292=CARTESIAN_POINT('Ctrl Pts',(-25.4,0.,31.75));
#293=CARTESIAN_POINT('Ctrl Pts',(-25.4,-4.44089209850063E-15,31.75));
#294=CARTESIAN_POINT('Ctrl Pts',(-25.4,1.68228642804081,31.75));
#295=CARTESIAN_POINT('Ctrl Pts',(-25.230206844083,3.39661102592515,31.6136432857178));
#296=CARTESIAN_POINT('Ctrl Pts',(-24.5447540697152,6.75687438696941,31.0693427150316));
#297=CARTESIAN_POINT('Ctrl Pts',(-24.0294000045497,8.40292184147239,30.6616851636326));
#298=CARTESIAN_POINT('Ctrl Pts',(-22.7029802549921,11.5150257254248,29.6336327700378));
#299=CARTESIAN_POINT('Ctrl Pts',(-21.8907705987462,12.9847062817792,29.0125375814254));
#300=CARTESIAN_POINT('Ctrl Pts',(-20.0546970868864,15.6721906303701,27.6534333302818));
#301=CARTESIAN_POINT('Ctrl Pts',(-19.0307980255302,16.8902264587464,26.9159307128716));
#302=CARTESIAN_POINT('Ctrl Pts',(-16.8558701478765,19.0651543364002,25.4239424976531));
#303=CARTESIAN_POINT('Ctrl Pts',(-15.6172147455786,20.0975122275819,24.6097438424604));
#304=CARTESIAN_POINT('Ctrl Pts',(-12.9252655214257,21.9258957756687,22.9957514263878));
#305=CARTESIAN_POINT('Ctrl Pts',(-11.4723309242416,22.7226540506207,22.1961885662096));
#306=CARTESIAN_POINT('Ctrl Pts',(-8.40726276828531,24.0260545371048,20.7783183580123));
#307=CARTESIAN_POINT('Ctrl Pts',(-6.79291988546418,24.5339479568855,20.1606944151517));
#308=CARTESIAN_POINT('Ctrl Pts',(-3.45804849558174,25.2210281485333,19.2942463749345));
#309=CARTESIAN_POINT('Ctrl Pts',(-1.73628803806958,25.4,19.05));
#310=CARTESIAN_POINT('Ctrl Pts',(1.73628803806958,25.4,19.05));
#311=CARTESIAN_POINT('Ctrl Pts',(3.45804849558174,25.2210281485333,19.2942463749345));
#312=CARTESIAN_POINT('Ctrl Pts',(6.79291988546418,24.5339479568855,20.1606944151517));
#313=CARTESIAN_POINT('Ctrl Pts',(8.40726276828531,24.0260545371048,20.7783183580123));
#314=CARTESIAN_POINT('Ctrl Pts',(11.4723309242416,22.7226540506207,22.1961885662096));
#315=CARTESIAN_POINT('Ctrl Pts',(12.9252655214257,21.9258957756687,22.9957514263878));
#316=CARTESIAN_POINT('Ctrl Pts',(15.6172147455786,20.0975122275819,24.6097438424604));
#317=CARTESIAN_POINT('Ctrl Pts',(16.8558701478764,19.0651543364002,25.4239424976531));
#318=CARTESIAN_POINT('Ctrl Pts',(19.0307980255302,16.8902264587464,26.9159307128716));
#319=CARTESIAN_POINT('Ctrl Pts',(20.0546970868864,15.6721906303701,27.6534333302818));
#320=CARTESIAN_POINT('Ctrl Pts',(21.8907705987462,12.9847062817792,29.0125375814254));
#321=CARTESIAN_POINT('Ctrl Pts',(22.7029802549921,11.5150257254248,29.6336327700378));
#322=CARTESIAN_POINT('Ctrl Pts',(24.0294000045497,8.40292184147241,30.6616851636326));
#323=CARTESIAN_POINT('Ctrl Pts',(24.5447540697152,6.75687438696942,31.0693427150316));
#324=CARTESIAN_POINT('Ctrl Pts',(25.230206844083,3.39661102592516,31.6136432857178));
#325=CARTESIAN_POINT('Ctrl Pts',(25.4,1.68228642804082,31.75));
#326=CARTESIAN_POINT('Ctrl Pts',(25.4,-1.68228642804081,31.75));
#327=CARTESIAN_POINT('Ctrl Pts',(25.230206844083,-3.39661102592515,31.6136432857178));
#328=CARTESIAN_POINT('Ctrl Pts',(24.5447540697152,-6.75687438696941,31.0693427150316));
#329=CARTESIAN_POINT('Ctrl Pts',(24.0294000045497,-8.40292184147239,30.6616851636326));
#330=CARTESIAN_POINT('Ctrl Pts',(22.7029802549921,-11.5150257254248,29.6336327700378));
#331=CARTESIAN_POINT('Ctrl Pts',(21.8907705987462,-12.9847062817792,29.0125375814254));
#332=CARTESIAN_POINT('Ctrl Pts',(20.0546970868864,-15.6721906303701,27.6534333302818));
#333=CARTESIAN_POINT('Ctrl Pts',(19.0307980255302,-16.8902264587464,26.9159307128716));
#334=CARTESIAN_POINT('Ctrl Pts',(16.8558701478765,-19.0651543364002,25.4239424976531));
#335=CARTESIAN_POINT('Ctrl Pts',(15.6172147455786,-20.0975122275819,24.6097438424604));
#336=CARTESIAN_POINT('Ctrl Pts',(12.9252655214257,-21.9258957756687,22.9957514263878));
#337=CARTESIAN_POINT('Ctrl Pts',(11.4723309242416,-22.7226540506207,22.1961885662096));
#338=CARTESIAN_POINT('Ctrl Pts',(8.40726276828532,-24.0260545371048,20.7783183580122));
#339=CARTESIAN_POINT('Ctrl Pts',(6.79291988546418,-24.5339479568855,20.1606944151517));
#340=CARTESIAN_POINT('Ctrl Pts',(3.45804849558174,-25.2210281485333,19.2942463749345));
#341=CARTESIAN_POINT('Ctrl Pts',(1.73628803806957,-25.4,19.05));
#342=CARTESIAN_POINT('Ctrl Pts',(-8.32667268468867E-15,-25.4,19.05));
#343=CARTESIAN_POINT('Origin',(0.,0.,36.));
#344=CARTESIAN_POINT('Origin',(-85.,0.,0.));
#345=CARTESIAN_POINT('',(-85.,-31.75,-3.88825358729285E-15));
#346=CARTESIAN_POINT('Origin',(-85.,0.,0.));
#347=CARTESIAN_POINT('Origin',(0.,0.,0.));
#348=CARTESIAN_POINT('',(85.,-31.75,-3.88825358729285E-15));
#349=CARTESIAN_POINT('Origin',(85.,0.,0.));
#350=CARTESIAN_POINT('',(0.,-31.75,-3.88825358729285E-15));
#351=CARTESIAN_POINT('Origin',(85.,0.,0.));
#352=UNCERTAINTY_MEASURE_WITH_UNIT(LENGTH_MEASURE(0.01),#356,
'DISTANCE_ACCURACY_VALUE',
'Maximum model space distance between geometric entities at asserted c
onnectivities');
#353=UNCERTAINTY_MEASURE_WITH_UNIT(LENGTH_MEASURE(0.01),#356,
'DISTANCE_ACCURACY_VALUE',
'Maximum model space distance between geometric entities at asserted c
onnectivities');
#354=(
GEOMETRIC_REPRESENTATION_CONTEXT(3)
GLOBAL_UNCERTAINTY_ASSIGNED_CONTEXT((#352))
GLOBAL_UNIT_ASSIGNED_CONTEXT((#356,#358,#359))
REPRESENTATION_CONTEXT('','3D')
);
#355=(
GEOMETRIC_REPRESENTATION_CONTEXT(3)
GLOBAL_UNCERTAINTY_ASSIGNED_CONTEXT((#353))
GLOBAL_UNIT_ASSIGNED_CONTEXT((#356,#358,#359))
REPRESENTATION_CONTEXT('','3D')
);
#356=(
LENGTH_UNIT()
NAMED_UNIT(*)
SI_UNIT(.MILLI.,.METRE.)
);
#357=(
LENGTH_UNIT()
NAMED_UNIT(*)
SI_UNIT(.CENTI.,.METRE.)
);
#358=(
NAMED_UNIT(*)
PLANE_ANGLE_UNIT()
SI_UNIT($,.RADIAN.)
);
#359=(
NAMED_UNIT(*)
SI_UNIT($,.STERADIAN.)
SOLID_ANGLE_UNIT()
);
#360=SHAPE_DEFINITION_REPRESENTATION(#361,#362);
#361=PRODUCT_DEFINITION_SHAPE('',$,#364);
#362=SHAPE_REPRESENTATION('',(#142),#354);
#363=PRODUCT_DEFINITION_CONTEXT('part definition',#368,'design');
#364=PRODUCT_DEFINITION('T-8 25\X\D720','T-8 25\X\D720',#365,#363);
#365=PRODUCT_DEFINITION_FORMATION('',$,#370);
#366=PRODUCT_RELATED_PRODUCT_CATEGORY('T-8 25\X\D720','T-8 25\X\D720',(#370));
#367=APPLICATION_PROTOCOL_DEFINITION('international standard',
'automotive_design',2009,#368);
#368=APPLICATION_CONTEXT(
'Core Data for Automotive Mechanical Design Process');
#369=PRODUCT_CONTEXT('part definition',#368,'mechanical');
#370=PRODUCT('T-8 25\X\D720','T-8 25\X\D720',$,(#369));
#371=PRESENTATION_STYLE_ASSIGNMENT((#372));
#372=SURFACE_STYLE_USAGE(.BOTH.,#375);
#373=SURFACE_STYLE_RENDERING_WITH_PROPERTIES($,#379,(#374));
#374=SURFACE_STYLE_TRANSPARENT(0.);
#375=SURFACE_SIDE_STYLE('',(#376,#373));
#376=SURFACE_STYLE_FILL_AREA(#377);
#377=FILL_AREA_STYLE('',(#378));
#378=FILL_AREA_STYLE_COLOUR('',#379);
#379=COLOUR_RGB('',0.749019607843137,0.749019607843137,0.749019607843137);
ENDSEC;
END-ISO-10303-21;
