ISO-10303-21;
HEADER;
/* Generated by software containing ST-Developer
 * from STEP Tools, Inc. (www.steptools.com) 
 */

FILE_DESCRIPTION(
/* description */ (''),
/* implementation_level */ '2;1');

FILE_NAME(
/* name */ 
'\\\\Tske00\\w\\Work\\TOSTE\\\X2\7D99624B\X0\\\02_\X2\6EB663A5\X0\\\\X2\6EB663A5752830C130FC30BA\X0\\\
T-8\\T-8 25\X\D715.stp',
/* time_stamp */ '2022-04-12T15:38:30+09:00',
/* author */ ('3dcad-eng'),
/* organization */ (''),
/* preprocessor_version */ 'ST-DEVELOPER v18.1',
/* originating_system */ 'Autodesk Inventor 2022',
/* authorisation */ '');

FILE_SCHEMA (('AUTOMOTIVE_DESIGN { 1 0 10303 214 3 1 1 }'));
ENDSEC;

DATA;
#10=MECHANICAL_DESIGN_GEOMETRIC_PRESENTATION_REPRESENTATION('',(#13),#347);
#11=SHAPE_REPRESENTATION_RELATIONSHIP('SRR','None',#354,#12);
#12=ADVANCED_BREP_SHAPE_REPRESENTATION('',(#14),#346);
#13=STYLED_ITEM('',(#363),#14);
#14=MANIFOLD_SOLID_BREP('\X2\30BD30EA30C330C9\X0\1',#123);
#15=PLANE('',#150);
#16=PLANE('',#151);
#17=PLANE('',#155);
#18=FACE_BOUND('',#32,.T.);
#19=FACE_BOUND('',#35,.T.);
#20=FACE_BOUND('',#37,.T.);
#21=FACE_BOUND('',#39,.T.);
#22=FACE_BOUND('',#41,.T.);
#23=FACE_OUTER_BOUND('',#30,.T.);
#24=FACE_OUTER_BOUND('',#31,.T.);
#25=FACE_OUTER_BOUND('',#33,.T.);
#26=FACE_OUTER_BOUND('',#34,.T.);
#27=FACE_OUTER_BOUND('',#36,.T.);
#28=FACE_OUTER_BOUND('',#38,.T.);
#29=FACE_OUTER_BOUND('',#40,.T.);
#30=EDGE_LOOP('',(#84,#85,#86,#87,#88));
#31=EDGE_LOOP('',(#89,#90,#91,#92));
#32=EDGE_LOOP('',(#93,#94));
#33=EDGE_LOOP('',(#95,#96,#97,#98,#99));
#34=EDGE_LOOP('',(#100));
#35=EDGE_LOOP('',(#101));
#36=EDGE_LOOP('',(#102));
#37=EDGE_LOOP('',(#103));
#38=EDGE_LOOP('',(#104,#105,#106,#107));
#39=EDGE_LOOP('',(#108,#109));
#40=EDGE_LOOP('',(#110));
#41=EDGE_LOOP('',(#111));
#42=CIRCLE('',#144,17.85);
#43=CIRCLE('',#146,29.75);
#44=CIRCLE('',#147,29.75);
#45=CIRCLE('',#149,19.05);
#46=CIRCLE('',#152,31.75);
#47=CIRCLE('',#154,31.75);
#48=LINE('',#253,#52);
#49=LINE('',#259,#53);
#50=LINE('',#265,#54);
#51=LINE('',#342,#55);
#52=VECTOR('',#160,17.85);
#53=VECTOR('',#167,29.75);
#54=VECTOR('',#174,19.05);
#55=VECTOR('',#185,31.75);
#56=B_SPLINE_CURVE_WITH_KNOTS('',3,(#192,#193,#194,#195,#196,#197,#198,
#199,#200,#201,#202,#203,#204,#205,#206,#207,#208,#209,#210,#211,#212,#213,
#214,#215,#216,#217,#218,#219,#220,#221,#222,#223,#224,#225,#226,#227,#228,
#229,#230,#231,#232,#233,#234,#235),.UNSPECIFIED.,.F.,.F.,(4,2,2,2,2,2,
2,2,2,2,2,2,2,2,2,2,2,2,2,2,2,4),(0.,0.347955730559629,0.695911461119257,
1.39182292223851,1.73753360459334,2.08324428694816,2.42895496930299,2.77466565165781,
3.12037633401264,3.46608701636746,3.81179769872228,4.15750838107711,4.85341984219636,
5.20137557275599,5.54933130331562,5.89728703387525,6.24524276443488,6.94115422555414,
7.28686490790896,7.63257559026378,7.97828627261861,8.32399695497343),
 .UNSPECIFIED.);
#57=B_SPLINE_CURVE_WITH_KNOTS('',3,(#236,#237,#238,#239,#240,#241,#242,
#243,#244,#245,#246,#247,#248,#249,#250,#251),.UNSPECIFIED.,.F.,.F.,(4,
2,2,2,2,2,2,4),(8.32399695497343,8.66970763732825,9.01541831968308,9.3611290020379,
9.70683968439273,10.402751145512,10.7507068760716,11.0986626066312),
 .UNSPECIFIED.);
#58=B_SPLINE_CURVE_WITH_KNOTS('',3,(#267,#268,#269,#270,#271,#272,#273,
#274,#275,#276,#277,#278,#279,#280,#281,#282,#283,#284),.UNSPECIFIED.,.F.,
 .F.,(4,2,2,2,2,2,2,2,4),(0.,0.37134771244599,0.742695424891981,1.11404313733797,
1.48539084978396,1.85434258641474,2.22329432304552,2.5922460596763,2.96119779630708),
 .UNSPECIFIED.);
#59=B_SPLINE_CURVE_WITH_KNOTS('',3,(#285,#286,#287,#288,#289,#290,#291,
#292,#293,#294,#295,#296,#297,#298,#299,#300,#301,#302,#303,#304,#305,#306,
#307,#308,#309,#310,#311,#312,#313,#314,#315,#316,#317,#318,#319,#320,#321,
#322,#323,#324,#325,#326,#327,#328,#329,#330,#331,#332,#333,#334),
 .UNSPECIFIED.,.F.,.F.,(4,2,2,2,2,2,2,2,2,2,2,2,2,2,2,2,2,2,2,2,2,2,2,2,
4),(2.96119779630708,3.33014953293786,3.69910126956863,4.06805300619941,
4.43700474283019,4.80835245527618,5.17970016772217,5.55104788016816,5.92239559261415,
6.29374330506014,6.66509101750613,7.03643872995212,7.40778644239811,7.77673817902889,
8.14568991565967,8.51464165229045,8.88359338892123,9.25254512555201,9.62149686218279,
9.99044859881356,10.3594003354443,10.7307480478903,11.1020957603363,11.4734434727823,
11.8447911852283),.UNSPECIFIED.);
#60=VERTEX_POINT('',#190);
#61=VERTEX_POINT('',#191);
#62=VERTEX_POINT('',#252);
#63=VERTEX_POINT('',#256);
#64=VERTEX_POINT('',#258);
#65=VERTEX_POINT('',#262);
#66=VERTEX_POINT('',#264);
#67=VERTEX_POINT('',#266);
#68=VERTEX_POINT('',#337);
#69=VERTEX_POINT('',#340);
#70=EDGE_CURVE('',#60,#61,#56,.T.);
#71=EDGE_CURVE('',#61,#60,#57,.T.);
#72=EDGE_CURVE('',#61,#62,#48,.T.);
#73=EDGE_CURVE('',#62,#62,#42,.T.);
#74=EDGE_CURVE('',#63,#63,#43,.T.);
#75=EDGE_CURVE('',#63,#64,#49,.T.);
#76=EDGE_CURVE('',#64,#64,#44,.T.);
#77=EDGE_CURVE('',#65,#65,#45,.T.);
#78=EDGE_CURVE('',#65,#66,#50,.T.);
#79=EDGE_CURVE('',#67,#66,#58,.T.);
#80=EDGE_CURVE('',#66,#67,#59,.T.);
#81=EDGE_CURVE('',#68,#68,#46,.T.);
#82=EDGE_CURVE('',#69,#69,#47,.T.);
#83=EDGE_CURVE('',#69,#68,#51,.T.);
#84=ORIENTED_EDGE('',*,*,#70,.F.);
#85=ORIENTED_EDGE('',*,*,#71,.F.);
#86=ORIENTED_EDGE('',*,*,#72,.T.);
#87=ORIENTED_EDGE('',*,*,#73,.F.);
#88=ORIENTED_EDGE('',*,*,#72,.F.);
#89=ORIENTED_EDGE('',*,*,#74,.F.);
#90=ORIENTED_EDGE('',*,*,#75,.T.);
#91=ORIENTED_EDGE('',*,*,#76,.F.);
#92=ORIENTED_EDGE('',*,*,#75,.F.);
#93=ORIENTED_EDGE('',*,*,#70,.T.);
#94=ORIENTED_EDGE('',*,*,#71,.T.);
#95=ORIENTED_EDGE('',*,*,#77,.F.);
#96=ORIENTED_EDGE('',*,*,#78,.T.);
#97=ORIENTED_EDGE('',*,*,#79,.F.);
#98=ORIENTED_EDGE('',*,*,#80,.F.);
#99=ORIENTED_EDGE('',*,*,#78,.F.);
#100=ORIENTED_EDGE('',*,*,#77,.T.);
#101=ORIENTED_EDGE('',*,*,#73,.T.);
#102=ORIENTED_EDGE('',*,*,#81,.T.);
#103=ORIENTED_EDGE('',*,*,#74,.T.);
#104=ORIENTED_EDGE('',*,*,#82,.F.);
#105=ORIENTED_EDGE('',*,*,#83,.T.);
#106=ORIENTED_EDGE('',*,*,#81,.F.);
#107=ORIENTED_EDGE('',*,*,#83,.F.);
#108=ORIENTED_EDGE('',*,*,#79,.T.);
#109=ORIENTED_EDGE('',*,*,#80,.T.);
#110=ORIENTED_EDGE('',*,*,#82,.T.);
#111=ORIENTED_EDGE('',*,*,#76,.T.);
#112=CYLINDRICAL_SURFACE('',#143,17.85);
#113=CYLINDRICAL_SURFACE('',#145,29.75);
#114=CYLINDRICAL_SURFACE('',#148,19.05);
#115=CYLINDRICAL_SURFACE('',#153,31.75);
#116=ADVANCED_FACE('',(#23),#112,.F.);
#117=ADVANCED_FACE('',(#24,#18),#113,.F.);
#118=ADVANCED_FACE('',(#25),#114,.T.);
#119=ADVANCED_FACE('',(#26,#19),#15,.T.);
#120=ADVANCED_FACE('',(#27,#20),#16,.F.);
#121=ADVANCED_FACE('',(#28,#21),#115,.T.);
#122=ADVANCED_FACE('',(#29,#22),#17,.T.);
#123=CLOSED_SHELL('',(#116,#117,#118,#119,#120,#121,#122));
#124=DERIVED_UNIT_ELEMENT(#126,1.);
#125=DERIVED_UNIT_ELEMENT(#349,-3.);
#126=(
MASS_UNIT()
NAMED_UNIT(*)
SI_UNIT($,.GRAM.)
);
#127=DERIVED_UNIT((#124,#125));
#128=MEASURE_REPRESENTATION_ITEM('density measure',
POSITIVE_RATIO_MEASURE(1.),#127);
#129=PROPERTY_DEFINITION_REPRESENTATION(#134,#131);
#130=PROPERTY_DEFINITION_REPRESENTATION(#135,#132);
#131=REPRESENTATION('material name',(#133),#346);
#132=REPRESENTATION('density',(#128),#346);
#133=DESCRIPTIVE_REPRESENTATION_ITEM('\X2\4E00822C\X0\','\X2\4E00822C\X0\');
#134=PROPERTY_DEFINITION('material property','material name',#356);
#135=PROPERTY_DEFINITION('material property','density of part',#356);
#136=DATE_TIME_ROLE('creation_date');
#137=APPLIED_DATE_AND_TIME_ASSIGNMENT(#138,#136,(#356));
#138=DATE_AND_TIME(#139,#140);
#139=CALENDAR_DATE(2022,31,3);
#140=LOCAL_TIME(0,0,0.,#141);
#141=COORDINATED_UNIVERSAL_TIME_OFFSET(0,0,.BEHIND.);
#142=AXIS2_PLACEMENT_3D('placement',#188,#156,#157);
#143=AXIS2_PLACEMENT_3D('',#189,#158,#159);
#144=AXIS2_PLACEMENT_3D('',#254,#161,#162);
#145=AXIS2_PLACEMENT_3D('',#255,#163,#164);
#146=AXIS2_PLACEMENT_3D('',#257,#165,#166);
#147=AXIS2_PLACEMENT_3D('',#260,#168,#169);
#148=AXIS2_PLACEMENT_3D('',#261,#170,#171);
#149=AXIS2_PLACEMENT_3D('',#263,#172,#173);
#150=AXIS2_PLACEMENT_3D('',#335,#175,#176);
#151=AXIS2_PLACEMENT_3D('',#336,#177,#178);
#152=AXIS2_PLACEMENT_3D('',#338,#179,#180);
#153=AXIS2_PLACEMENT_3D('',#339,#181,#182);
#154=AXIS2_PLACEMENT_3D('',#341,#183,#184);
#155=AXIS2_PLACEMENT_3D('',#343,#186,#187);
#156=DIRECTION('axis',(0.,0.,1.));
#157=DIRECTION('refdir',(1.,0.,0.));
#158=DIRECTION('center_axis',(0.,0.,1.));
#159=DIRECTION('ref_axis',(1.,0.,0.));
#160=DIRECTION('',(0.,0.,1.));
#161=DIRECTION('center_axis',(0.,0.,-1.));
#162=DIRECTION('ref_axis',(1.,0.,0.));
#163=DIRECTION('center_axis',(1.,0.,0.));
#164=DIRECTION('ref_axis',(0.,1.,0.));
#165=DIRECTION('center_axis',(1.,0.,0.));
#166=DIRECTION('ref_axis',(0.,1.,0.));
#167=DIRECTION('',(1.,0.,0.));
#168=DIRECTION('center_axis',(-1.,0.,0.));
#169=DIRECTION('ref_axis',(0.,1.,0.));
#170=DIRECTION('center_axis',(0.,0.,1.));
#171=DIRECTION('ref_axis',(1.,0.,0.));
#172=DIRECTION('center_axis',(0.,0.,1.));
#173=DIRECTION('ref_axis',(1.,0.,0.));
#174=DIRECTION('',(0.,0.,-1.));
#175=DIRECTION('center_axis',(0.,0.,1.));
#176=DIRECTION('ref_axis',(1.,0.,0.));
#177=DIRECTION('center_axis',(1.,0.,0.));
#178=DIRECTION('ref_axis',(0.,0.,-1.));
#179=DIRECTION('center_axis',(-1.,0.,0.));
#180=DIRECTION('ref_axis',(0.,1.,0.));
#181=DIRECTION('center_axis',(1.,0.,0.));
#182=DIRECTION('ref_axis',(0.,1.,0.));
#183=DIRECTION('center_axis',(1.,0.,0.));
#184=DIRECTION('ref_axis',(0.,1.,0.));
#185=DIRECTION('',(-1.,0.,0.));
#186=DIRECTION('center_axis',(1.,0.,0.));
#187=DIRECTION('ref_axis',(0.,0.,-1.));
#188=CARTESIAN_POINT('',(0.,0.,0.));
#189=CARTESIAN_POINT('Origin',(0.,0.,0.));
#190=CARTESIAN_POINT('',(0.,-17.85,23.8));
#191=CARTESIAN_POINT('',(-17.85,-1.21552121692001E-16,29.75));
#192=CARTESIAN_POINT('Ctrl Pts',(0.,-17.85,23.8));
#193=CARTESIAN_POINT('Ctrl Pts',(1.15985243519876,-17.85,23.8));
#194=CARTESIAN_POINT('Ctrl Pts',(2.34443920965424,-17.7352738407217,23.8873643503456));
#195=CARTESIAN_POINT('Ctrl Pts',(4.67609701708646,-17.2676127700855,24.2275806138854));
#196=CARTESIAN_POINT('Ctrl Pts',(5.82333688995792,-16.9149233561729,24.4796122910083));
#197=CARTESIAN_POINT('Ctrl Pts',(9.09977623465262,-15.5380306148861,25.393819661068));
#198=CARTESIAN_POINT('Ctrl Pts',(11.0648009973519,-14.1789110910079,26.2102573535665));
#199=CARTESIAN_POINT('Ctrl Pts',(13.395360423368,-11.8483516649918,27.3021740521642));
#200=CARTESIAN_POINT('Ctrl Pts',(14.1269832199731,-10.9723983524293,27.6714058617074));
#201=CARTESIAN_POINT('Ctrl Pts',(15.4269987864369,-9.05388806230053,28.3571391170372));
#202=CARTESIAN_POINT('Ctrl Pts',(15.9954840556703,-8.01123408852294,28.6731937516842));
#203=CARTESIAN_POINT('Ctrl Pts',(16.9164927743488,-5.81959311523824,29.1969904441494));
#204=CARTESIAN_POINT('Ctrl Pts',(17.2697614637795,-4.66837539410037,29.4049196624635));
#205=CARTESIAN_POINT('Ctrl Pts',(17.7366045675121,-2.3347908386281,29.681505705101));
#206=CARTESIAN_POINT('Ctrl Pts',(17.85,-1.15236894118275,29.75));
#207=CARTESIAN_POINT('Ctrl Pts',(17.85,1.15236894118275,29.75));
#208=CARTESIAN_POINT('Ctrl Pts',(17.7366045675121,2.33479083862811,29.681505705101));
#209=CARTESIAN_POINT('Ctrl Pts',(17.2697614637795,4.66837539410037,29.4049196624635));
#210=CARTESIAN_POINT('Ctrl Pts',(16.9164927743488,5.81959311523824,29.1969904441494));
#211=CARTESIAN_POINT('Ctrl Pts',(15.9954840556703,8.01123408852294,28.6731937516841));
#212=CARTESIAN_POINT('Ctrl Pts',(15.4269987864369,9.05388806230054,28.3571391170372));
#213=CARTESIAN_POINT('Ctrl Pts',(14.1269832199731,10.9723983524293,27.6714058617074));
#214=CARTESIAN_POINT('Ctrl Pts',(13.395360423368,11.8483516649918,27.3021740521642));
#215=CARTESIAN_POINT('Ctrl Pts',(11.0648009973519,14.1789110910079,26.2102573535665));
#216=CARTESIAN_POINT('Ctrl Pts',(9.09977623465262,15.5380306148861,25.393819661068));
#217=CARTESIAN_POINT('Ctrl Pts',(5.82333688995792,16.9149233561729,24.4796122910083));
#218=CARTESIAN_POINT('Ctrl Pts',(4.67609701708646,17.2676127700855,24.2275806138854));
#219=CARTESIAN_POINT('Ctrl Pts',(2.34443920965424,17.7352738407217,23.8873643503456));
#220=CARTESIAN_POINT('Ctrl Pts',(1.15985243519876,17.85,23.8));
#221=CARTESIAN_POINT('Ctrl Pts',(-1.15985243519876,17.85,23.8));
#222=CARTESIAN_POINT('Ctrl Pts',(-2.34443920965424,17.7352738407217,23.8873643503456));
#223=CARTESIAN_POINT('Ctrl Pts',(-4.67609701708646,17.2676127700855,24.2275806138854));
#224=CARTESIAN_POINT('Ctrl Pts',(-5.82333688995792,16.9149233561729,24.4796122910083));
#225=CARTESIAN_POINT('Ctrl Pts',(-9.09977623465262,15.5380306148861,25.393819661068));
#226=CARTESIAN_POINT('Ctrl Pts',(-11.0648009973519,14.1789110910079,26.2102573535665));
#227=CARTESIAN_POINT('Ctrl Pts',(-13.395360423368,11.8483516649918,27.3021740521642));
#228=CARTESIAN_POINT('Ctrl Pts',(-14.1269832199731,10.9723983524293,27.6714058617074));
#229=CARTESIAN_POINT('Ctrl Pts',(-15.4269987864369,9.05388806230054,28.3571391170372));
#230=CARTESIAN_POINT('Ctrl Pts',(-15.9954840556703,8.01123408852295,28.6731937516842));
#231=CARTESIAN_POINT('Ctrl Pts',(-16.9164927743488,5.81959311523824,29.1969904441494));
#232=CARTESIAN_POINT('Ctrl Pts',(-17.2697614637795,4.66837539410037,29.4049196624635));
#233=CARTESIAN_POINT('Ctrl Pts',(-17.7366045675121,2.33479083862811,29.681505705101));
#234=CARTESIAN_POINT('Ctrl Pts',(-17.85,1.15236894118275,29.75));
#235=CARTESIAN_POINT('Ctrl Pts',(-17.85,2.22044604925031E-15,29.75));
#236=CARTESIAN_POINT('Ctrl Pts',(-17.85,1.94289029309402E-15,29.75));
#237=CARTESIAN_POINT('Ctrl Pts',(-17.85,-1.15236894118274,29.75));
#238=CARTESIAN_POINT('Ctrl Pts',(-17.7366045675121,-2.3347908386281,29.681505705101));
#239=CARTESIAN_POINT('Ctrl Pts',(-17.2697614637795,-4.66837539410037,29.4049196624635));
#240=CARTESIAN_POINT('Ctrl Pts',(-16.9164927743488,-5.81959311523824,29.1969904441494));
#241=CARTESIAN_POINT('Ctrl Pts',(-15.9954840556703,-8.01123408852294,28.6731937516841));
#242=CARTESIAN_POINT('Ctrl Pts',(-15.4269987864369,-9.05388806230053,28.3571391170372));
#243=CARTESIAN_POINT('Ctrl Pts',(-14.1269832199731,-10.9723983524293,27.6714058617074));
#244=CARTESIAN_POINT('Ctrl Pts',(-13.395360423368,-11.8483516649918,27.3021740521642));
#245=CARTESIAN_POINT('Ctrl Pts',(-11.0648009973519,-14.1789110910079,26.2102573535665));
#246=CARTESIAN_POINT('Ctrl Pts',(-9.09977623465262,-15.5380306148861,25.393819661068));
#247=CARTESIAN_POINT('Ctrl Pts',(-5.82333688995792,-16.9149233561729,24.4796122910083));
#248=CARTESIAN_POINT('Ctrl Pts',(-4.67609701708647,-17.2676127700855,24.2275806138854));
#249=CARTESIAN_POINT('Ctrl Pts',(-2.34443920965425,-17.7352738407217,23.8873643503456));
#250=CARTESIAN_POINT('Ctrl Pts',(-1.15985243519877,-17.85,23.8));
#251=CARTESIAN_POINT('Ctrl Pts',(-2.77555756156289E-16,-17.85,23.8));
#252=CARTESIAN_POINT('',(-17.85,2.18599453647803E-15,35.));
#253=CARTESIAN_POINT('',(-17.85,-2.18599453647803E-15,0.));
#254=CARTESIAN_POINT('Origin',(0.,0.,35.));
#255=CARTESIAN_POINT('Origin',(0.,0.,0.));
#256=CARTESIAN_POINT('',(-85.,-29.75,-3.64332422746338E-15));
#257=CARTESIAN_POINT('Origin',(-85.,0.,0.));
#258=CARTESIAN_POINT('',(85.,-29.75,3.64332422746338E-15));
#259=CARTESIAN_POINT('',(0.,-29.75,-3.64332422746338E-15));
#260=CARTESIAN_POINT('Origin',(85.,0.,0.));
#261=CARTESIAN_POINT('Origin',(0.,0.,0.));
#262=CARTESIAN_POINT('',(-19.05,-2.33295215237571E-15,35.));
#263=CARTESIAN_POINT('Origin',(0.,0.,35.));
#264=CARTESIAN_POINT('',(-19.05,-2.41547697889116E-15,31.75));
#265=CARTESIAN_POINT('',(-19.05,-2.33295215237571E-15,0.));
#266=CARTESIAN_POINT('',(-2.77555756156289E-16,-19.05,25.4));
#267=CARTESIAN_POINT('Ctrl Pts',(-2.77555756156289E-16,-19.05,25.4));
#268=CARTESIAN_POINT('Ctrl Pts',(-1.2378257081533,-19.05,25.4));
#269=CARTESIAN_POINT('Ctrl Pts',(-2.50204856828646,-18.927561157745,25.4932375839823));
#270=CARTESIAN_POINT('Ctrl Pts',(-4.99045648042,-18.4284606874021,25.8563255291046));
#271=CARTESIAN_POINT('Ctrl Pts',(-6.21482172289627,-18.0520610607895,26.1253005122525));
#272=CARTESIAN_POINT('Ctrl Pts',(-8.5459578392897,-17.0724230879973,26.7757449716227));
#273=CARTESIAN_POINT('Ctrl Pts',(-9.6551505553408,-16.4683857854309,27.1568028024354));
#274=CARTESIAN_POINT('Ctrl Pts',(-11.7019029793647,-15.0829416718367,27.9500364798559));
#275=CARTESIAN_POINT('Ctrl Pts',(-12.6395186734224,-14.3012496897851,28.3615696374778));
#276=CARTESIAN_POINT('Ctrl Pts',(-14.295888855191,-12.6448795080164,29.1376143245786));
#277=CARTESIAN_POINT('Ctrl Pts',(-15.0766963776183,-11.7100385778027,29.5316684406457));
#278=CARTESIAN_POINT('Ctrl Pts',(-16.4641079485503,-9.6625528059846,30.2635014106196));
#279=CARTESIAN_POINT('Ctrl Pts',(-17.0708107148751,-8.54980444741524,30.6008034156629));
#280=CARTESIAN_POINT('Ctrl Pts',(-18.0537359860697,-6.21082626584249,31.159813331151));
#281=CARTESIAN_POINT('Ctrl Pts',(-18.4307538310924,-4.98221575672896,31.3817209843098));
#282=CARTESIAN_POINT('Ctrl Pts',(-18.92898134516,-2.49175156727537,31.6769010466204));
#283=CARTESIAN_POINT('Ctrl Pts',(-19.05,-1.2298391221026,31.75));
#284=CARTESIAN_POINT('Ctrl Pts',(-19.05,-2.22044604925031E-15,31.75));
#285=CARTESIAN_POINT('Ctrl Pts',(-19.05,-1.94289029309402E-15,31.75));
#286=CARTESIAN_POINT('Ctrl Pts',(-19.05,1.22983912210259,31.75));
#287=CARTESIAN_POINT('Ctrl Pts',(-18.92898134516,2.49175156727537,31.6769010466204));
#288=CARTESIAN_POINT('Ctrl Pts',(-18.4307538310924,4.98221575672896,31.3817209843098));
#289=CARTESIAN_POINT('Ctrl Pts',(-18.0537359860698,6.21082626584249,31.159813331151));
#290=CARTESIAN_POINT('Ctrl Pts',(-17.0708107148751,8.54980444741524,30.6008034156629));
#291=CARTESIAN_POINT('Ctrl Pts',(-16.4641079485503,9.6625528059846,30.2635014106196));
#292=CARTESIAN_POINT('Ctrl Pts',(-15.0766963776183,11.7100385778027,29.5316684406457));
#293=CARTESIAN_POINT('Ctrl Pts',(-14.295888855191,12.6448795080164,29.1376143245786));
#294=CARTESIAN_POINT('Ctrl Pts',(-12.6395186734224,14.3012496897851,28.3615696374778));
#295=CARTESIAN_POINT('Ctrl Pts',(-11.7019029793647,15.0829416718367,27.9500364798559));
#296=CARTESIAN_POINT('Ctrl Pts',(-9.6551505553408,16.4683857854309,27.1568028024354));
#297=CARTESIAN_POINT('Ctrl Pts',(-8.54595783928969,17.0724230879973,26.7757449716227));
#298=CARTESIAN_POINT('Ctrl Pts',(-6.21482172289627,18.0520610607895,26.1253005122525));
#299=CARTESIAN_POINT('Ctrl Pts',(-4.99045648042,18.4284606874021,25.8563255291046));
#300=CARTESIAN_POINT('Ctrl Pts',(-2.50204856828646,18.927561157745,25.4932375839823));
#301=CARTESIAN_POINT('Ctrl Pts',(-1.2378257081533,19.05,25.4));
#302=CARTESIAN_POINT('Ctrl Pts',(1.2378257081533,19.05,25.4));
#303=CARTESIAN_POINT('Ctrl Pts',(2.50204856828646,18.927561157745,25.4932375839823));
#304=CARTESIAN_POINT('Ctrl Pts',(4.99045648042,18.4284606874021,25.8563255291046));
#305=CARTESIAN_POINT('Ctrl Pts',(6.21482172289627,18.0520610607895,26.1253005122525));
#306=CARTESIAN_POINT('Ctrl Pts',(8.54595783928969,17.0724230879973,26.7757449716227));
#307=CARTESIAN_POINT('Ctrl Pts',(9.6551505553408,16.4683857854309,27.1568028024354));
#308=CARTESIAN_POINT('Ctrl Pts',(11.7019029793647,15.0829416718367,27.9500364798559));
#309=CARTESIAN_POINT('Ctrl Pts',(12.6395186734224,14.3012496897851,28.3615696374778));
#310=CARTESIAN_POINT('Ctrl Pts',(14.295888855191,12.6448795080164,29.1376143245786));
#311=CARTESIAN_POINT('Ctrl Pts',(15.0766963776183,11.7100385778027,29.5316684406457));
#312=CARTESIAN_POINT('Ctrl Pts',(16.4641079485503,9.66255280598461,30.2635014106196));
#313=CARTESIAN_POINT('Ctrl Pts',(17.0708107148751,8.54980444741525,30.6008034156629));
#314=CARTESIAN_POINT('Ctrl Pts',(18.0537359860697,6.2108262658425,31.159813331151));
#315=CARTESIAN_POINT('Ctrl Pts',(18.4307538310924,4.98221575672897,31.3817209843098));
#316=CARTESIAN_POINT('Ctrl Pts',(18.92898134516,2.49175156727538,31.6769010466204));
#317=CARTESIAN_POINT('Ctrl Pts',(19.05,1.2298391221026,31.75));
#318=CARTESIAN_POINT('Ctrl Pts',(19.05,-1.22983912210259,31.75));
#319=CARTESIAN_POINT('Ctrl Pts',(18.92898134516,-2.49175156727537,31.6769010466204));
#320=CARTESIAN_POINT('Ctrl Pts',(18.4307538310924,-4.98221575672896,31.3817209843098));
#321=CARTESIAN_POINT('Ctrl Pts',(18.0537359860698,-6.21082626584248,31.159813331151));
#322=CARTESIAN_POINT('Ctrl Pts',(17.0708107148751,-8.54980444741524,30.6008034156629));
#323=CARTESIAN_POINT('Ctrl Pts',(16.4641079485504,-9.6625528059846,30.2635014106196));
#324=CARTESIAN_POINT('Ctrl Pts',(15.0766963776183,-11.7100385778027,29.5316684406457));
#325=CARTESIAN_POINT('Ctrl Pts',(14.295888855191,-12.6448795080164,29.1376143245786));
#326=CARTESIAN_POINT('Ctrl Pts',(12.6395186734224,-14.3012496897851,28.3615696374778));
#327=CARTESIAN_POINT('Ctrl Pts',(11.7019029793647,-15.0829416718366,27.9500364798559));
#328=CARTESIAN_POINT('Ctrl Pts',(9.65515055534081,-16.4683857854309,27.1568028024353));
#329=CARTESIAN_POINT('Ctrl Pts',(8.54595783928969,-17.0724230879972,26.7757449716227));
#330=CARTESIAN_POINT('Ctrl Pts',(6.21482172289626,-18.0520610607895,26.1253005122525));
#331=CARTESIAN_POINT('Ctrl Pts',(4.99045648042,-18.4284606874021,25.8563255291046));
#332=CARTESIAN_POINT('Ctrl Pts',(2.50204856828646,-18.927561157745,25.4932375839823));
#333=CARTESIAN_POINT('Ctrl Pts',(1.2378257081533,-19.05,25.4));
#334=CARTESIAN_POINT('Ctrl Pts',(2.77555756156289E-16,-19.05,25.4));
#335=CARTESIAN_POINT('Origin',(0.,0.,35.));
#336=CARTESIAN_POINT('Origin',(-85.,0.,0.));
#337=CARTESIAN_POINT('',(-85.,-31.75,-3.88825358729285E-15));
#338=CARTESIAN_POINT('Origin',(-85.,0.,0.));
#339=CARTESIAN_POINT('Origin',(0.,0.,0.));
#340=CARTESIAN_POINT('',(85.,-31.75,-3.88825358729285E-15));
#341=CARTESIAN_POINT('Origin',(85.,0.,0.));
#342=CARTESIAN_POINT('',(0.,-31.75,-3.88825358729285E-15));
#343=CARTESIAN_POINT('Origin',(85.,0.,0.));
#344=UNCERTAINTY_MEASURE_WITH_UNIT(LENGTH_MEASURE(0.01),#348,
'DISTANCE_ACCURACY_VALUE',
'Maximum model space distance between geometric entities at asserted c
onnectivities');
#345=UNCERTAINTY_MEASURE_WITH_UNIT(LENGTH_MEASURE(0.01),#348,
'DISTANCE_ACCURACY_VALUE',
'Maximum model space distance between geometric entities at asserted c
onnectivities');
#346=(
GEOMETRIC_REPRESENTATION_CONTEXT(3)
GLOBAL_UNCERTAINTY_ASSIGNED_CONTEXT((#344))
GLOBAL_UNIT_ASSIGNED_CONTEXT((#348,#350,#351))
REPRESENTATION_CONTEXT('','3D')
);
#347=(
GEOMETRIC_REPRESENTATION_CONTEXT(3)
GLOBAL_UNCERTAINTY_ASSIGNED_CONTEXT((#345))
GLOBAL_UNIT_ASSIGNED_CONTEXT((#348,#350,#351))
REPRESENTATION_CONTEXT('','3D')
);
#348=(
LENGTH_UNIT()
NAMED_UNIT(*)
SI_UNIT(.MILLI.,.METRE.)
);
#349=(
LENGTH_UNIT()
NAMED_UNIT(*)
SI_UNIT(.CENTI.,.METRE.)
);
#350=(
NAMED_UNIT(*)
PLANE_ANGLE_UNIT()
SI_UNIT($,.RADIAN.)
);
#351=(
NAMED_UNIT(*)
SI_UNIT($,.STERADIAN.)
SOLID_ANGLE_UNIT()
);
#352=SHAPE_DEFINITION_REPRESENTATION(#353,#354);
#353=PRODUCT_DEFINITION_SHAPE('',$,#356);
#354=SHAPE_REPRESENTATION('',(#142),#346);
#355=PRODUCT_DEFINITION_CONTEXT('part definition',#360,'design');
#356=PRODUCT_DEFINITION('T-8 25\X\D715','T-8 25\X\D715',#357,#355);
#357=PRODUCT_DEFINITION_FORMATION('',$,#362);
#358=PRODUCT_RELATED_PRODUCT_CATEGORY('T-8 25\X\D715','T-8 25\X\D715',(#362));
#359=APPLICATION_PROTOCOL_DEFINITION('international standard',
'automotive_design',2009,#360);
#360=APPLICATION_CONTEXT(
'Core Data for Automotive Mechanical Design Process');
#361=PRODUCT_CONTEXT('part definition',#360,'mechanical');
#362=PRODUCT('T-8 25\X\D715','T-8 25\X\D715',$,(#361));
#363=PRESENTATION_STYLE_ASSIGNMENT((#364));
#364=SURFACE_STYLE_USAGE(.BOTH.,#367);
#365=SURFACE_STYLE_RENDERING_WITH_PROPERTIES($,#371,(#366));
#366=SURFACE_STYLE_TRANSPARENT(0.);
#367=SURFACE_SIDE_STYLE('',(#368,#365));
#368=SURFACE_STYLE_FILL_AREA(#369);
#369=FILL_AREA_STYLE('',(#370));
#370=FILL_AREA_STYLE_COLOUR('',#371);
#371=COLOUR_RGB('',0.749019607843137,0.749019607843137,0.749019607843137);
ENDSEC;
END-ISO-10303-21;
