ISO-10303-21;
HEADER;
/* Generated by software containing ST-Developer
 * from STEP Tools, Inc. (www.steptools.com) 
 */

FILE_DESCRIPTION(
/* description */ (''),
/* implementation_level */ '2;1');

FILE_NAME(
/* name */ 
'\\\\Tske00\\w\\Work\\TOSTE\\\X2\7D99624B\X0\\\02_\X2\6EB663A5\X0\\\\X2\6EB663A5752830C130FC30BA\X0\\\
T-8\\T-8 25\X\D704.stp',
/* time_stamp */ '2022-04-28T09:31:55+09:00',
/* author */ ('3dcad-eng'),
/* organization */ (''),
/* preprocessor_version */ 'ST-DEVELOPER v18.1',
/* originating_system */ 'Autodesk Inventor 2022',
/* authorisation */ '');

FILE_SCHEMA (('AUTOMOTIVE_DESIGN { 1 0 10303 214 3 1 1 }'));
ENDSEC;

DATA;
#10=MECHANICAL_DESIGN_GEOMETRIC_PRESENTATION_REPRESENTATION('',(#13),#291);
#11=SHAPE_REPRESENTATION_RELATIONSHIP('SRR','None',#298,#12);
#12=ADVANCED_BREP_SHAPE_REPRESENTATION('',(#14),#290);
#13=STYLED_ITEM('',(#307),#14);
#14=MANIFOLD_SOLID_BREP('\X2\30BD30EA30C330C9\X0\1',#123);
#15=PLANE('',#150);
#16=PLANE('',#151);
#17=PLANE('',#155);
#18=FACE_BOUND('',#32,.T.);
#19=FACE_BOUND('',#35,.T.);
#20=FACE_BOUND('',#37,.T.);
#21=FACE_BOUND('',#39,.T.);
#22=FACE_BOUND('',#41,.T.);
#23=FACE_OUTER_BOUND('',#30,.T.);
#24=FACE_OUTER_BOUND('',#31,.T.);
#25=FACE_OUTER_BOUND('',#33,.T.);
#26=FACE_OUTER_BOUND('',#34,.T.);
#27=FACE_OUTER_BOUND('',#36,.T.);
#28=FACE_OUTER_BOUND('',#38,.T.);
#29=FACE_OUTER_BOUND('',#40,.T.);
#30=EDGE_LOOP('',(#84,#85,#86,#87,#88));
#31=EDGE_LOOP('',(#89,#90,#91,#92));
#32=EDGE_LOOP('',(#93,#94));
#33=EDGE_LOOP('',(#95,#96,#97,#98,#99));
#34=EDGE_LOOP('',(#100));
#35=EDGE_LOOP('',(#101));
#36=EDGE_LOOP('',(#102));
#37=EDGE_LOOP('',(#103));
#38=EDGE_LOOP('',(#104,#105,#106,#107));
#39=EDGE_LOOP('',(#108,#109));
#40=EDGE_LOOP('',(#110));
#41=EDGE_LOOP('',(#111));
#42=CIRCLE('',#144,9.2);
#43=CIRCLE('',#146,29.75);
#44=CIRCLE('',#147,29.75);
#45=CIRCLE('',#149,10.85);
#46=CIRCLE('',#152,31.75);
#47=CIRCLE('',#154,31.75);
#48=LINE('',#229,#52);
#49=LINE('',#235,#53);
#50=LINE('',#241,#54);
#51=LINE('',#286,#55);
#52=VECTOR('',#160,9.2);
#53=VECTOR('',#167,29.75);
#54=VECTOR('',#174,10.85);
#55=VECTOR('',#185,31.75);
#56=B_SPLINE_CURVE_WITH_KNOTS('',3,(#192,#193,#194,#195,#196,#197,#198,
#199,#200,#201,#202,#203,#204,#205,#206,#207,#208,#209,#210,#211,#212,#213,
#214,#215,#216,#217),.UNSPECIFIED.,.F.,.F.,(4,2,2,2,2,2,2,2,2,2,2,2,4),
(0.,0.349095310546557,0.698190621093114,1.04716784896125,1.39614507682938,
1.74512230469751,2.09409953256565,2.44319484311221,2.79229015365876,3.14138546420532,
3.49048077475188,3.83945800262001,4.18843523048814),.UNSPECIFIED.);
#57=B_SPLINE_CURVE_WITH_KNOTS('',3,(#218,#219,#220,#221,#222,#223,#224,
#225,#226,#227),.UNSPECIFIED.,.F.,.F.,(4,2,2,2,4),(4.18843523048814,4.53741245835628,
4.88638968622441,5.23548499677097,5.58458030731752),.UNSPECIFIED.);
#58=B_SPLINE_CURVE_WITH_KNOTS('',3,(#243,#244,#245,#246,#247,#248,#249,
#250,#251,#252),.UNSPECIFIED.,.F.,.F.,(4,2,2,2,4),(0.,0.412429640361879,
0.824859280723757,1.23707639427916,1.64929350783457),.UNSPECIFIED.);
#59=B_SPLINE_CURVE_WITH_KNOTS('',3,(#253,#254,#255,#256,#257,#258,#259,
#260,#261,#262,#263,#264,#265,#266,#267,#268,#269,#270,#271,#272,#273,#274,
#275,#276,#277,#278),.UNSPECIFIED.,.F.,.F.,(4,2,2,2,2,2,2,2,2,2,2,2,4),
(1.64929350783457,2.06151062138997,2.47372773494538,2.88615737530726,3.29858701566913,
3.71101665603101,4.12344629639289,4.5356634099483,4.9478805235037,5.36009763705911,
5.77231475061451,6.18474439097639,6.59717403133827),.UNSPECIFIED.);
#60=VERTEX_POINT('',#190);
#61=VERTEX_POINT('',#191);
#62=VERTEX_POINT('',#228);
#63=VERTEX_POINT('',#232);
#64=VERTEX_POINT('',#234);
#65=VERTEX_POINT('',#238);
#66=VERTEX_POINT('',#240);
#67=VERTEX_POINT('',#242);
#68=VERTEX_POINT('',#281);
#69=VERTEX_POINT('',#284);
#70=EDGE_CURVE('',#60,#61,#56,.T.);
#71=EDGE_CURVE('',#61,#60,#57,.T.);
#72=EDGE_CURVE('',#61,#62,#48,.T.);
#73=EDGE_CURVE('',#62,#62,#42,.T.);
#74=EDGE_CURVE('',#63,#63,#43,.T.);
#75=EDGE_CURVE('',#63,#64,#49,.T.);
#76=EDGE_CURVE('',#64,#64,#44,.T.);
#77=EDGE_CURVE('',#65,#65,#45,.T.);
#78=EDGE_CURVE('',#65,#66,#50,.T.);
#79=EDGE_CURVE('',#67,#66,#58,.T.);
#80=EDGE_CURVE('',#66,#67,#59,.T.);
#81=EDGE_CURVE('',#68,#68,#46,.T.);
#82=EDGE_CURVE('',#69,#69,#47,.T.);
#83=EDGE_CURVE('',#69,#68,#51,.T.);
#84=ORIENTED_EDGE('',*,*,#70,.F.);
#85=ORIENTED_EDGE('',*,*,#71,.F.);
#86=ORIENTED_EDGE('',*,*,#72,.T.);
#87=ORIENTED_EDGE('',*,*,#73,.F.);
#88=ORIENTED_EDGE('',*,*,#72,.F.);
#89=ORIENTED_EDGE('',*,*,#74,.F.);
#90=ORIENTED_EDGE('',*,*,#75,.T.);
#91=ORIENTED_EDGE('',*,*,#76,.F.);
#92=ORIENTED_EDGE('',*,*,#75,.F.);
#93=ORIENTED_EDGE('',*,*,#70,.T.);
#94=ORIENTED_EDGE('',*,*,#71,.T.);
#95=ORIENTED_EDGE('',*,*,#77,.F.);
#96=ORIENTED_EDGE('',*,*,#78,.T.);
#97=ORIENTED_EDGE('',*,*,#79,.F.);
#98=ORIENTED_EDGE('',*,*,#80,.F.);
#99=ORIENTED_EDGE('',*,*,#78,.F.);
#100=ORIENTED_EDGE('',*,*,#77,.T.);
#101=ORIENTED_EDGE('',*,*,#73,.T.);
#102=ORIENTED_EDGE('',*,*,#81,.T.);
#103=ORIENTED_EDGE('',*,*,#74,.T.);
#104=ORIENTED_EDGE('',*,*,#82,.F.);
#105=ORIENTED_EDGE('',*,*,#83,.T.);
#106=ORIENTED_EDGE('',*,*,#81,.F.);
#107=ORIENTED_EDGE('',*,*,#83,.F.);
#108=ORIENTED_EDGE('',*,*,#79,.T.);
#109=ORIENTED_EDGE('',*,*,#80,.T.);
#110=ORIENTED_EDGE('',*,*,#82,.T.);
#111=ORIENTED_EDGE('',*,*,#76,.T.);
#112=CYLINDRICAL_SURFACE('',#143,9.2);
#113=CYLINDRICAL_SURFACE('',#145,29.75);
#114=CYLINDRICAL_SURFACE('',#148,10.85);
#115=CYLINDRICAL_SURFACE('',#153,31.75);
#116=ADVANCED_FACE('',(#23),#112,.F.);
#117=ADVANCED_FACE('',(#24,#18),#113,.F.);
#118=ADVANCED_FACE('',(#25),#114,.T.);
#119=ADVANCED_FACE('',(#26,#19),#15,.T.);
#120=ADVANCED_FACE('',(#27,#20),#16,.F.);
#121=ADVANCED_FACE('',(#28,#21),#115,.T.);
#122=ADVANCED_FACE('',(#29,#22),#17,.T.);
#123=CLOSED_SHELL('',(#116,#117,#118,#119,#120,#121,#122));
#124=DERIVED_UNIT_ELEMENT(#126,1.);
#125=DERIVED_UNIT_ELEMENT(#293,-3.);
#126=(
MASS_UNIT()
NAMED_UNIT(*)
SI_UNIT($,.GRAM.)
);
#127=DERIVED_UNIT((#124,#125));
#128=MEASURE_REPRESENTATION_ITEM('density measure',
POSITIVE_RATIO_MEASURE(1.),#127);
#129=PROPERTY_DEFINITION_REPRESENTATION(#134,#131);
#130=PROPERTY_DEFINITION_REPRESENTATION(#135,#132);
#131=REPRESENTATION('material name',(#133),#290);
#132=REPRESENTATION('density',(#128),#290);
#133=DESCRIPTIVE_REPRESENTATION_ITEM('\X2\4E00822C\X0\','\X2\4E00822C\X0\');
#134=PROPERTY_DEFINITION('material property','material name',#300);
#135=PROPERTY_DEFINITION('material property','density of part',#300);
#136=DATE_TIME_ROLE('creation_date');
#137=APPLIED_DATE_AND_TIME_ASSIGNMENT(#138,#136,(#300));
#138=DATE_AND_TIME(#139,#140);
#139=CALENDAR_DATE(2022,31,3);
#140=LOCAL_TIME(0,0,0.,#141);
#141=COORDINATED_UNIVERSAL_TIME_OFFSET(0,0,.BEHIND.);
#142=AXIS2_PLACEMENT_3D('placement',#188,#156,#157);
#143=AXIS2_PLACEMENT_3D('',#189,#158,#159);
#144=AXIS2_PLACEMENT_3D('',#230,#161,#162);
#145=AXIS2_PLACEMENT_3D('',#231,#163,#164);
#146=AXIS2_PLACEMENT_3D('',#233,#165,#166);
#147=AXIS2_PLACEMENT_3D('',#236,#168,#169);
#148=AXIS2_PLACEMENT_3D('',#237,#170,#171);
#149=AXIS2_PLACEMENT_3D('',#239,#172,#173);
#150=AXIS2_PLACEMENT_3D('',#279,#175,#176);
#151=AXIS2_PLACEMENT_3D('',#280,#177,#178);
#152=AXIS2_PLACEMENT_3D('',#282,#179,#180);
#153=AXIS2_PLACEMENT_3D('',#283,#181,#182);
#154=AXIS2_PLACEMENT_3D('',#285,#183,#184);
#155=AXIS2_PLACEMENT_3D('',#287,#186,#187);
#156=DIRECTION('axis',(0.,0.,1.));
#157=DIRECTION('refdir',(1.,0.,0.));
#158=DIRECTION('center_axis',(0.,0.,1.));
#159=DIRECTION('ref_axis',(1.,0.,0.));
#160=DIRECTION('',(0.,0.,1.));
#161=DIRECTION('center_axis',(0.,0.,-1.));
#162=DIRECTION('ref_axis',(1.,0.,0.));
#163=DIRECTION('center_axis',(1.,0.,0.));
#164=DIRECTION('ref_axis',(0.,1.,0.));
#165=DIRECTION('center_axis',(1.,0.,0.));
#166=DIRECTION('ref_axis',(0.,1.,0.));
#167=DIRECTION('',(1.,0.,0.));
#168=DIRECTION('center_axis',(-1.,0.,0.));
#169=DIRECTION('ref_axis',(0.,1.,0.));
#170=DIRECTION('center_axis',(0.,0.,1.));
#171=DIRECTION('ref_axis',(1.,0.,0.));
#172=DIRECTION('center_axis',(0.,0.,1.));
#173=DIRECTION('ref_axis',(1.,0.,0.));
#174=DIRECTION('',(0.,0.,-1.));
#175=DIRECTION('center_axis',(0.,0.,1.));
#176=DIRECTION('ref_axis',(1.,0.,0.));
#177=DIRECTION('center_axis',(1.,0.,0.));
#178=DIRECTION('ref_axis',(0.,0.,-1.));
#179=DIRECTION('center_axis',(-1.,0.,0.));
#180=DIRECTION('ref_axis',(0.,1.,0.));
#181=DIRECTION('center_axis',(1.,0.,0.));
#182=DIRECTION('ref_axis',(0.,1.,0.));
#183=DIRECTION('center_axis',(1.,0.,0.));
#184=DIRECTION('ref_axis',(0.,1.,0.));
#185=DIRECTION('',(-1.,0.,0.));
#186=DIRECTION('center_axis',(1.,0.,0.));
#187=DIRECTION('ref_axis',(0.,0.,-1.));
#188=CARTESIAN_POINT('',(0.,0.,0.));
#189=CARTESIAN_POINT('Origin',(0.,0.,0.));
#190=CARTESIAN_POINT('',(-2.77555756156289E-16,-9.2,28.2917390769815));
#191=CARTESIAN_POINT('',(-9.2,4.0810761893923E-16,29.75));
#192=CARTESIAN_POINT('Ctrl Pts',(-2.77555756156289E-16,-9.2,28.2917390769815));
#193=CARTESIAN_POINT('Ctrl Pts',(1.16365103515519,-9.2,28.2917390769815));
#194=CARTESIAN_POINT('Ctrl Pts',(2.39919227350995,-8.96587492913062,28.3710537755378));
#195=CARTESIAN_POINT('Ctrl Pts',(4.66334976799508,-8.02472541082201,28.6514812442955));
#196=CARTESIAN_POINT('Ctrl Pts',(5.69269626199299,-7.31806851183949,28.8479115058612));
#197=CARTESIAN_POINT('Ctrl Pts',(7.3177936179883,-5.69297115584417,29.2120820081354));
#198=CARTESIAN_POINT('Ctrl Pts',(8.02466306064296,-4.66351354417351,29.4043283293051));
#199=CARTESIAN_POINT('Ctrl Pts',(8.9659699116999,-2.39894999195436,29.6750387018409));
#200=CARTESIAN_POINT('Ctrl Pts',(9.2,-1.16325742622711,29.75));
#201=CARTESIAN_POINT('Ctrl Pts',(9.2,1.16325742622711,29.75));
#202=CARTESIAN_POINT('Ctrl Pts',(8.9659699116999,2.39894999195436,29.6750387018409));
#203=CARTESIAN_POINT('Ctrl Pts',(8.02466306064296,4.66351354417351,29.4043283293051));
#204=CARTESIAN_POINT('Ctrl Pts',(7.3177936179883,5.69297115584417,29.2120820081354));
#205=CARTESIAN_POINT('Ctrl Pts',(5.69269626199299,7.31806851183949,28.8479115058612));
#206=CARTESIAN_POINT('Ctrl Pts',(4.66334976799508,8.02472541082201,28.6514812442955));
#207=CARTESIAN_POINT('Ctrl Pts',(2.39919227350995,8.96587492913062,28.3710537755378));
#208=CARTESIAN_POINT('Ctrl Pts',(1.16365103515519,9.2,28.2917390769815));
#209=CARTESIAN_POINT('Ctrl Pts',(-1.16365103515519,9.2,28.2917390769815));
#210=CARTESIAN_POINT('Ctrl Pts',(-2.39919227350995,8.96587492913062,28.3710537755378));
#211=CARTESIAN_POINT('Ctrl Pts',(-4.66334976799508,8.02472541082201,28.6514812442955));
#212=CARTESIAN_POINT('Ctrl Pts',(-5.69269626199298,7.31806851183949,28.8479115058612));
#213=CARTESIAN_POINT('Ctrl Pts',(-7.3177936179883,5.69297115584418,29.2120820081354));
#214=CARTESIAN_POINT('Ctrl Pts',(-8.02466306064296,4.66351354417352,29.4043283293051));
#215=CARTESIAN_POINT('Ctrl Pts',(-8.9659699116999,2.39894999195436,29.6750387018409));
#216=CARTESIAN_POINT('Ctrl Pts',(-9.2,1.16325742622711,29.75));
#217=CARTESIAN_POINT('Ctrl Pts',(-9.2,1.38777878078145E-15,29.75));
#218=CARTESIAN_POINT('Ctrl Pts',(-9.2,1.94289029309402E-15,29.75));
#219=CARTESIAN_POINT('Ctrl Pts',(-9.2,-1.16325742622711,29.75));
#220=CARTESIAN_POINT('Ctrl Pts',(-8.96596991169991,-2.39894999195436,29.6750387018409));
#221=CARTESIAN_POINT('Ctrl Pts',(-8.02466306064296,-4.66351354417351,29.4043283293051));
#222=CARTESIAN_POINT('Ctrl Pts',(-7.3177936179883,-5.69297115584417,29.2120820081354));
#223=CARTESIAN_POINT('Ctrl Pts',(-5.69269626199299,-7.31806851183949,28.8479115058612));
#224=CARTESIAN_POINT('Ctrl Pts',(-4.66334976799508,-8.02472541082201,28.6514812442955));
#225=CARTESIAN_POINT('Ctrl Pts',(-2.39919227350995,-8.96587492913062,28.3710537755378));
#226=CARTESIAN_POINT('Ctrl Pts',(-1.16365103515519,-9.2,28.2917390769815));
#227=CARTESIAN_POINT('Ctrl Pts',(0.,-9.2,28.2917390769815));
#228=CARTESIAN_POINT('',(-9.2,1.12667505521557E-15,35.5));
#229=CARTESIAN_POINT('',(-9.2,-1.12667505521557E-15,0.));
#230=CARTESIAN_POINT('Origin',(0.,0.,35.5));
#231=CARTESIAN_POINT('Origin',(0.,0.,0.));
#232=CARTESIAN_POINT('',(-85.,-29.75,-3.64332422746338E-15));
#233=CARTESIAN_POINT('Origin',(-85.,0.,0.));
#234=CARTESIAN_POINT('',(85.,-29.75,3.64332422746338E-15));
#235=CARTESIAN_POINT('',(0.,-29.75,-3.64332422746338E-15));
#236=CARTESIAN_POINT('Origin',(85.,0.,0.));
#237=CARTESIAN_POINT('Origin',(0.,0.,0.));
#238=CARTESIAN_POINT('',(-10.85,-1.32874177707488E-15,35.5));
#239=CARTESIAN_POINT('Origin',(0.,0.,35.5));
#240=CARTESIAN_POINT('',(-10.85,-1.08070452277187E-15,31.75));
#241=CARTESIAN_POINT('',(-10.85,-1.32874177707488E-15,0.));
#242=CARTESIAN_POINT('',(5.55111512312578E-16,-10.85,29.8385656491729));
#243=CARTESIAN_POINT('Ctrl Pts',(5.55111512312578E-16,-10.85,29.8385656491729));
#244=CARTESIAN_POINT('Ctrl Pts',(-1.37476546787293,-10.85,29.8385656491729));
#245=CARTESIAN_POINT('Ctrl Pts',(-2.83275583180273,-10.5729735242296,29.9435658493371));
#246=CARTESIAN_POINT('Ctrl Pts',(-5.50219427966547,-9.46246025294102,30.3128146705783));
#247=CARTESIAN_POINT('Ctrl Pts',(-6.71473135689718,-8.6294857948509,30.5707030319668));
#248=CARTESIAN_POINT('Ctrl Pts',(-8.6289924541619,-6.71522469758618,31.0473938240849));
#249=CARTESIAN_POINT('Ctrl Pts',(-9.46234609071548,-5.50249221686102,31.2985426915317));
#250=CARTESIAN_POINT('Ctrl Pts',(-10.573142944009,-2.8323250660454,31.6520793932465));
#251=CARTESIAN_POINT('Ctrl Pts',(-10.85,-1.37405704518468,31.75));
#252=CARTESIAN_POINT('Ctrl Pts',(-10.85,-1.94289029309402E-15,31.75));
#253=CARTESIAN_POINT('Ctrl Pts',(-10.85,-1.11022302462516E-15,31.75));
#254=CARTESIAN_POINT('Ctrl Pts',(-10.85,1.37405704518468,31.75));
#255=CARTESIAN_POINT('Ctrl Pts',(-10.573142944009,2.8323250660454,31.6520793932465));
#256=CARTESIAN_POINT('Ctrl Pts',(-9.46234609071548,5.50249221686101,31.2985426915317));
#257=CARTESIAN_POINT('Ctrl Pts',(-8.6289924541619,6.71522469758618,31.0473938240849));
#258=CARTESIAN_POINT('Ctrl Pts',(-6.71473135689718,8.6294857948509,30.5707030319668));
#259=CARTESIAN_POINT('Ctrl Pts',(-5.50219427966547,9.46246025294102,30.3128146705783));
#260=CARTESIAN_POINT('Ctrl Pts',(-2.83275583180273,10.5729735242296,29.9435658493371));
#261=CARTESIAN_POINT('Ctrl Pts',(-1.37476546787293,10.85,29.8385656491729));
#262=CARTESIAN_POINT('Ctrl Pts',(1.37476546787293,10.85,29.8385656491729));
#263=CARTESIAN_POINT('Ctrl Pts',(2.83275583180273,10.5729735242296,29.9435658493371));
#264=CARTESIAN_POINT('Ctrl Pts',(5.50219427966547,9.46246025294102,30.3128146705783));
#265=CARTESIAN_POINT('Ctrl Pts',(6.71473135689718,8.6294857948509,30.5707030319668));
#266=CARTESIAN_POINT('Ctrl Pts',(8.6289924541619,6.71522469758618,31.0473938240849));
#267=CARTESIAN_POINT('Ctrl Pts',(9.46234609071548,5.50249221686102,31.2985426915317));
#268=CARTESIAN_POINT('Ctrl Pts',(10.573142944009,2.8323250660454,31.6520793932465));
#269=CARTESIAN_POINT('Ctrl Pts',(10.85,1.37405704518468,31.75));
#270=CARTESIAN_POINT('Ctrl Pts',(10.85,-1.37405704518468,31.75));
#271=CARTESIAN_POINT('Ctrl Pts',(10.573142944009,-2.8323250660454,31.6520793932465));
#272=CARTESIAN_POINT('Ctrl Pts',(9.46234609071548,-5.50249221686101,31.2985426915317));
#273=CARTESIAN_POINT('Ctrl Pts',(8.6289924541619,-6.71522469758618,31.0473938240849));
#274=CARTESIAN_POINT('Ctrl Pts',(6.71473135689718,-8.6294857948509,30.5707030319668));
#275=CARTESIAN_POINT('Ctrl Pts',(5.50219427966547,-9.46246025294102,30.3128146705783));
#276=CARTESIAN_POINT('Ctrl Pts',(2.83275583180273,-10.5729735242296,29.9435658493371));
#277=CARTESIAN_POINT('Ctrl Pts',(1.37476546787293,-10.85,29.8385656491729));
#278=CARTESIAN_POINT('Ctrl Pts',(-2.77555756156289E-16,-10.85,29.8385656491729));
#279=CARTESIAN_POINT('Origin',(0.,0.,35.5));
#280=CARTESIAN_POINT('Origin',(-85.,0.,0.));
#281=CARTESIAN_POINT('',(-85.,-31.75,-3.88825358729285E-15));
#282=CARTESIAN_POINT('Origin',(-85.,0.,0.));
#283=CARTESIAN_POINT('Origin',(0.,0.,0.));
#284=CARTESIAN_POINT('',(85.,-31.75,-3.88825358729285E-15));
#285=CARTESIAN_POINT('Origin',(85.,0.,0.));
#286=CARTESIAN_POINT('',(0.,-31.75,-3.88825358729285E-15));
#287=CARTESIAN_POINT('Origin',(85.,0.,0.));
#288=UNCERTAINTY_MEASURE_WITH_UNIT(LENGTH_MEASURE(0.01),#292,
'DISTANCE_ACCURACY_VALUE',
'Maximum model space distance between geometric entities at asserted c
onnectivities');
#289=UNCERTAINTY_MEASURE_WITH_UNIT(LENGTH_MEASURE(0.01),#292,
'DISTANCE_ACCURACY_VALUE',
'Maximum model space distance between geometric entities at asserted c
onnectivities');
#290=(
GEOMETRIC_REPRESENTATION_CONTEXT(3)
GLOBAL_UNCERTAINTY_ASSIGNED_CONTEXT((#288))
GLOBAL_UNIT_ASSIGNED_CONTEXT((#292,#294,#295))
REPRESENTATION_CONTEXT('','3D')
);
#291=(
GEOMETRIC_REPRESENTATION_CONTEXT(3)
GLOBAL_UNCERTAINTY_ASSIGNED_CONTEXT((#289))
GLOBAL_UNIT_ASSIGNED_CONTEXT((#292,#294,#295))
REPRESENTATION_CONTEXT('','3D')
);
#292=(
LENGTH_UNIT()
NAMED_UNIT(*)
SI_UNIT(.MILLI.,.METRE.)
);
#293=(
LENGTH_UNIT()
NAMED_UNIT(*)
SI_UNIT(.CENTI.,.METRE.)
);
#294=(
NAMED_UNIT(*)
PLANE_ANGLE_UNIT()
SI_UNIT($,.RADIAN.)
);
#295=(
NAMED_UNIT(*)
SI_UNIT($,.STERADIAN.)
SOLID_ANGLE_UNIT()
);
#296=SHAPE_DEFINITION_REPRESENTATION(#297,#298);
#297=PRODUCT_DEFINITION_SHAPE('',$,#300);
#298=SHAPE_REPRESENTATION('',(#142),#290);
#299=PRODUCT_DEFINITION_CONTEXT('part definition',#304,'design');
#300=PRODUCT_DEFINITION('T-8 25\X\D704','T-8 25\X\D704',#301,#299);
#301=PRODUCT_DEFINITION_FORMATION('',$,#306);
#302=PRODUCT_RELATED_PRODUCT_CATEGORY('T-8 25\X\D704','T-8 25\X\D704',(#306));
#303=APPLICATION_PROTOCOL_DEFINITION('international standard',
'automotive_design',2009,#304);
#304=APPLICATION_CONTEXT(
'Core Data for Automotive Mechanical Design Process');
#305=PRODUCT_CONTEXT('part definition',#304,'mechanical');
#306=PRODUCT('T-8 25\X\D704','T-8 25\X\D704',$,(#305));
#307=PRESENTATION_STYLE_ASSIGNMENT((#308));
#308=SURFACE_STYLE_USAGE(.BOTH.,#311);
#309=SURFACE_STYLE_RENDERING_WITH_PROPERTIES($,#315,(#310));
#310=SURFACE_STYLE_TRANSPARENT(0.);
#311=SURFACE_SIDE_STYLE('',(#312,#309));
#312=SURFACE_STYLE_FILL_AREA(#313);
#313=FILL_AREA_STYLE('',(#314));
#314=FILL_AREA_STYLE_COLOUR('',#315);
#315=COLOUR_RGB('',0.749019607843137,0.749019607843137,0.749019607843137);
ENDSEC;
END-ISO-10303-21;
