ISO-10303-21;
HEADER;
/* Generated by software containing ST-Developer
 * from STEP Tools, Inc. (www.steptools.com) 
 */

FILE_DESCRIPTION(
/* description */ (''),
/* implementation_level */ '2;1');

FILE_NAME(
/* name */ 
'\\\\Tske00\\w\\Work\\TOSTE\\\X2\7D99624B\X0\\\02_\X2\6EB663A5\X0\\\\X2\6EB663A5752830C130FC30BA\X0\\\
T-8\\T-8 20\X\D715.stp',
/* time_stamp */ '2022-04-28T09:31:52+09:00',
/* author */ ('3dcad-eng'),
/* organization */ (''),
/* preprocessor_version */ 'ST-DEVELOPER v18.1',
/* originating_system */ 'Autodesk Inventor 2022',
/* authorisation */ '');

FILE_SCHEMA (('AUTOMOTIVE_DESIGN { 1 0 10303 214 3 1 1 }'));
ENDSEC;

DATA;
#10=MECHANICAL_DESIGN_GEOMETRIC_PRESENTATION_REPRESENTATION('',(#13),#355);
#11=SHAPE_REPRESENTATION_RELATIONSHIP('SRR','None',#362,#12);
#12=ADVANCED_BREP_SHAPE_REPRESENTATION('',(#14),#354);
#13=STYLED_ITEM('',(#371),#14);
#14=MANIFOLD_SOLID_BREP('\X2\30BD30EA30C330C9\X0\1',#123);
#15=PLANE('',#150);
#16=PLANE('',#151);
#17=PLANE('',#155);
#18=FACE_BOUND('',#32,.T.);
#19=FACE_BOUND('',#35,.T.);
#20=FACE_BOUND('',#37,.T.);
#21=FACE_BOUND('',#39,.T.);
#22=FACE_BOUND('',#41,.T.);
#23=FACE_OUTER_BOUND('',#30,.T.);
#24=FACE_OUTER_BOUND('',#31,.T.);
#25=FACE_OUTER_BOUND('',#33,.T.);
#26=FACE_OUTER_BOUND('',#34,.T.);
#27=FACE_OUTER_BOUND('',#36,.T.);
#28=FACE_OUTER_BOUND('',#38,.T.);
#29=FACE_OUTER_BOUND('',#40,.T.);
#30=EDGE_LOOP('',(#84,#85,#86,#87,#88));
#31=EDGE_LOOP('',(#89,#90,#91,#92));
#32=EDGE_LOOP('',(#93,#94));
#33=EDGE_LOOP('',(#95,#96,#97,#98,#99));
#34=EDGE_LOOP('',(#100));
#35=EDGE_LOOP('',(#101));
#36=EDGE_LOOP('',(#102));
#37=EDGE_LOOP('',(#103));
#38=EDGE_LOOP('',(#104,#105,#106,#107));
#39=EDGE_LOOP('',(#108,#109));
#40=EDGE_LOOP('',(#110));
#41=EDGE_LOOP('',(#111));
#42=CIRCLE('',#144,17.85);
#43=CIRCLE('',#146,23.9);
#44=CIRCLE('',#147,23.9);
#45=CIRCLE('',#149,19.05);
#46=CIRCLE('',#152,25.4);
#47=CIRCLE('',#154,25.4);
#48=LINE('',#261,#52);
#49=LINE('',#267,#53);
#50=LINE('',#273,#54);
#51=LINE('',#350,#55);
#52=VECTOR('',#160,17.85);
#53=VECTOR('',#167,23.9);
#54=VECTOR('',#174,19.05);
#55=VECTOR('',#185,25.4);
#56=B_SPLINE_CURVE_WITH_KNOTS('',3,(#192,#193,#194,#195,#196,#197,#198,
#199,#200,#201,#202,#203,#204,#205,#206,#207,#208,#209,#210,#211,#212,#213,
#214,#215,#216,#217,#218,#219,#220,#221,#222,#223,#224,#225,#226,#227,#228,
#229,#230,#231,#232,#233,#234,#235,#236,#237,#238,#239,#240,#241),
 .UNSPECIFIED.,.F.,.F.,(4,2,2,2,2,2,2,2,2,2,2,2,2,2,2,2,2,2,2,2,2,2,2,2,
4),(0.,0.359237356483829,0.718474712967659,1.07771206945149,1.43694942593532,
1.78881269601313,2.14067596609094,2.49253923616875,2.84440250624656,3.19626577632437,
3.54812904640218,3.89999231647999,4.25185558655781,4.61109294304164,4.97033029952546,
5.32956765600929,5.68880501249312,6.04804236897695,6.40727972546078,6.76651708194461,
7.12575443842844,7.47761770850625,7.82948097858406,8.18134424866187,8.53320751873968),
 .UNSPECIFIED.);
#57=B_SPLINE_CURVE_WITH_KNOTS('',3,(#242,#243,#244,#245,#246,#247,#248,
#249,#250,#251,#252,#253,#254,#255,#256,#257,#258,#259),.UNSPECIFIED.,.F.,
 .F.,(4,2,2,2,2,2,2,2,4),(8.53320751873968,8.88507078881749,9.2369340588953,
9.58879732897311,9.94066059905093,10.2998979555348,10.6591353120186,11.0183726685024,
11.3776100249862),.UNSPECIFIED.);
#58=B_SPLINE_CURVE_WITH_KNOTS('',3,(#275,#276,#277,#278,#279,#280,#281,
#282,#283,#284,#285,#286,#287,#288,#289,#290,#291,#292),.UNSPECIFIED.,.F.,
 .F.,(4,2,2,2,2,2,2,2,4),(0.,0.383756100947074,0.767512201894148,1.15126830284122,
1.5350244037883,1.91070894730342,2.28639349081855,2.66207803433368,3.03776257784881),
 .UNSPECIFIED.);
#59=B_SPLINE_CURVE_WITH_KNOTS('',3,(#293,#294,#295,#296,#297,#298,#299,
#300,#301,#302,#303,#304,#305,#306,#307,#308,#309,#310,#311,#312,#313,#314,
#315,#316,#317,#318,#319,#320,#321,#322,#323,#324,#325,#326,#327,#328,#329,
#330,#331,#332,#333,#334,#335,#336,#337,#338,#339,#340,#341,#342),
 .UNSPECIFIED.,.F.,.F.,(4,2,2,2,2,2,2,2,2,2,2,2,2,2,2,2,2,2,2,2,2,2,2,2,
4),(3.03776257784881,3.41344712136394,3.78913166487907,4.1648162083942,
4.54050075190933,4.9242568528564,5.30801295380347,5.69176905475055,6.07552515569762,
6.45928125664469,6.84303735759177,7.22679345853884,7.61054955948592,7.98623410300104,
8.36191864651617,8.7376031900313,9.11328773354643,9.48897227706156,9.86465682057669,
10.2403413640918,10.6160259076069,10.999782008554,11.3835381095011,11.7672942104482,
12.1510503113952),.UNSPECIFIED.);
#60=VERTEX_POINT('',#190);
#61=VERTEX_POINT('',#191);
#62=VERTEX_POINT('',#260);
#63=VERTEX_POINT('',#264);
#64=VERTEX_POINT('',#266);
#65=VERTEX_POINT('',#270);
#66=VERTEX_POINT('',#272);
#67=VERTEX_POINT('',#274);
#68=VERTEX_POINT('',#345);
#69=VERTEX_POINT('',#348);
#70=EDGE_CURVE('',#60,#61,#56,.T.);
#71=EDGE_CURVE('',#61,#60,#57,.T.);
#72=EDGE_CURVE('',#61,#62,#48,.T.);
#73=EDGE_CURVE('',#62,#62,#42,.T.);
#74=EDGE_CURVE('',#63,#63,#43,.T.);
#75=EDGE_CURVE('',#63,#64,#49,.T.);
#76=EDGE_CURVE('',#64,#64,#44,.T.);
#77=EDGE_CURVE('',#65,#65,#45,.T.);
#78=EDGE_CURVE('',#65,#66,#50,.T.);
#79=EDGE_CURVE('',#67,#66,#58,.T.);
#80=EDGE_CURVE('',#66,#67,#59,.T.);
#81=EDGE_CURVE('',#68,#68,#46,.T.);
#82=EDGE_CURVE('',#69,#69,#47,.T.);
#83=EDGE_CURVE('',#69,#68,#51,.T.);
#84=ORIENTED_EDGE('',*,*,#70,.F.);
#85=ORIENTED_EDGE('',*,*,#71,.F.);
#86=ORIENTED_EDGE('',*,*,#72,.T.);
#87=ORIENTED_EDGE('',*,*,#73,.F.);
#88=ORIENTED_EDGE('',*,*,#72,.F.);
#89=ORIENTED_EDGE('',*,*,#74,.F.);
#90=ORIENTED_EDGE('',*,*,#75,.T.);
#91=ORIENTED_EDGE('',*,*,#76,.F.);
#92=ORIENTED_EDGE('',*,*,#75,.F.);
#93=ORIENTED_EDGE('',*,*,#70,.T.);
#94=ORIENTED_EDGE('',*,*,#71,.T.);
#95=ORIENTED_EDGE('',*,*,#77,.F.);
#96=ORIENTED_EDGE('',*,*,#78,.T.);
#97=ORIENTED_EDGE('',*,*,#79,.F.);
#98=ORIENTED_EDGE('',*,*,#80,.F.);
#99=ORIENTED_EDGE('',*,*,#78,.F.);
#100=ORIENTED_EDGE('',*,*,#77,.T.);
#101=ORIENTED_EDGE('',*,*,#73,.T.);
#102=ORIENTED_EDGE('',*,*,#81,.T.);
#103=ORIENTED_EDGE('',*,*,#74,.T.);
#104=ORIENTED_EDGE('',*,*,#82,.F.);
#105=ORIENTED_EDGE('',*,*,#83,.T.);
#106=ORIENTED_EDGE('',*,*,#81,.F.);
#107=ORIENTED_EDGE('',*,*,#83,.F.);
#108=ORIENTED_EDGE('',*,*,#79,.T.);
#109=ORIENTED_EDGE('',*,*,#80,.T.);
#110=ORIENTED_EDGE('',*,*,#82,.T.);
#111=ORIENTED_EDGE('',*,*,#76,.T.);
#112=CYLINDRICAL_SURFACE('',#143,17.85);
#113=CYLINDRICAL_SURFACE('',#145,23.9);
#114=CYLINDRICAL_SURFACE('',#148,19.05);
#115=CYLINDRICAL_SURFACE('',#153,25.4);
#116=ADVANCED_FACE('',(#23),#112,.F.);
#117=ADVANCED_FACE('',(#24,#18),#113,.F.);
#118=ADVANCED_FACE('',(#25),#114,.T.);
#119=ADVANCED_FACE('',(#26,#19),#15,.T.);
#120=ADVANCED_FACE('',(#27,#20),#16,.F.);
#121=ADVANCED_FACE('',(#28,#21),#115,.T.);
#122=ADVANCED_FACE('',(#29,#22),#17,.T.);
#123=CLOSED_SHELL('',(#116,#117,#118,#119,#120,#121,#122));
#124=DERIVED_UNIT_ELEMENT(#126,1.);
#125=DERIVED_UNIT_ELEMENT(#357,-3.);
#126=(
MASS_UNIT()
NAMED_UNIT(*)
SI_UNIT($,.GRAM.)
);
#127=DERIVED_UNIT((#124,#125));
#128=MEASURE_REPRESENTATION_ITEM('density measure',
POSITIVE_RATIO_MEASURE(1.),#127);
#129=PROPERTY_DEFINITION_REPRESENTATION(#134,#131);
#130=PROPERTY_DEFINITION_REPRESENTATION(#135,#132);
#131=REPRESENTATION('material name',(#133),#354);
#132=REPRESENTATION('density',(#128),#354);
#133=DESCRIPTIVE_REPRESENTATION_ITEM('\X2\4E00822C\X0\','\X2\4E00822C\X0\');
#134=PROPERTY_DEFINITION('material property','material name',#364);
#135=PROPERTY_DEFINITION('material property','density of part',#364);
#136=DATE_TIME_ROLE('creation_date');
#137=APPLIED_DATE_AND_TIME_ASSIGNMENT(#138,#136,(#364));
#138=DATE_AND_TIME(#139,#140);
#139=CALENDAR_DATE(2022,31,3);
#140=LOCAL_TIME(0,0,0.,#141);
#141=COORDINATED_UNIVERSAL_TIME_OFFSET(0,0,.BEHIND.);
#142=AXIS2_PLACEMENT_3D('placement',#188,#156,#157);
#143=AXIS2_PLACEMENT_3D('',#189,#158,#159);
#144=AXIS2_PLACEMENT_3D('',#262,#161,#162);
#145=AXIS2_PLACEMENT_3D('',#263,#163,#164);
#146=AXIS2_PLACEMENT_3D('',#265,#165,#166);
#147=AXIS2_PLACEMENT_3D('',#268,#168,#169);
#148=AXIS2_PLACEMENT_3D('',#269,#170,#171);
#149=AXIS2_PLACEMENT_3D('',#271,#172,#173);
#150=AXIS2_PLACEMENT_3D('',#343,#175,#176);
#151=AXIS2_PLACEMENT_3D('',#344,#177,#178);
#152=AXIS2_PLACEMENT_3D('',#346,#179,#180);
#153=AXIS2_PLACEMENT_3D('',#347,#181,#182);
#154=AXIS2_PLACEMENT_3D('',#349,#183,#184);
#155=AXIS2_PLACEMENT_3D('',#351,#186,#187);
#156=DIRECTION('axis',(0.,0.,1.));
#157=DIRECTION('refdir',(1.,0.,0.));
#158=DIRECTION('center_axis',(0.,0.,1.));
#159=DIRECTION('ref_axis',(1.,0.,0.));
#160=DIRECTION('',(0.,0.,1.));
#161=DIRECTION('center_axis',(0.,0.,-1.));
#162=DIRECTION('ref_axis',(1.,0.,0.));
#163=DIRECTION('center_axis',(1.,0.,0.));
#164=DIRECTION('ref_axis',(0.,1.,0.));
#165=DIRECTION('center_axis',(1.,0.,0.));
#166=DIRECTION('ref_axis',(0.,1.,0.));
#167=DIRECTION('',(1.,0.,0.));
#168=DIRECTION('center_axis',(-1.,0.,0.));
#169=DIRECTION('ref_axis',(0.,1.,0.));
#170=DIRECTION('center_axis',(0.,0.,1.));
#171=DIRECTION('ref_axis',(1.,0.,0.));
#172=DIRECTION('center_axis',(0.,0.,1.));
#173=DIRECTION('ref_axis',(1.,0.,0.));
#174=DIRECTION('',(0.,0.,-1.));
#175=DIRECTION('center_axis',(0.,0.,1.));
#176=DIRECTION('ref_axis',(1.,0.,0.));
#177=DIRECTION('center_axis',(1.,0.,0.));
#178=DIRECTION('ref_axis',(0.,0.,-1.));
#179=DIRECTION('center_axis',(-1.,0.,0.));
#180=DIRECTION('ref_axis',(0.,1.,0.));
#181=DIRECTION('center_axis',(1.,0.,0.));
#182=DIRECTION('ref_axis',(0.,1.,0.));
#183=DIRECTION('center_axis',(1.,0.,0.));
#184=DIRECTION('ref_axis',(0.,1.,0.));
#185=DIRECTION('',(-1.,0.,0.));
#186=DIRECTION('center_axis',(1.,0.,0.));
#187=DIRECTION('ref_axis',(0.,0.,-1.));
#188=CARTESIAN_POINT('',(0.,0.,0.));
#189=CARTESIAN_POINT('Origin',(0.,0.,0.));
#190=CARTESIAN_POINT('',(2.77555756156289E-16,-17.85,15.8930016044799));
#191=CARTESIAN_POINT('',(-17.85,1.56003634464288E-16,23.9));
#192=CARTESIAN_POINT('Ctrl Pts',(2.77555756156289E-16,-17.85,15.8930016044799));
#193=CARTESIAN_POINT('Ctrl Pts',(1.1974578549461,-17.85,15.8930016044799));
#194=CARTESIAN_POINT('Ctrl Pts',(2.40004311102756,-17.7282798805439,16.0325076379177));
#195=CARTESIAN_POINT('Ctrl Pts',(4.74301694427157,-17.249808875796,16.546217121557));
#196=CARTESIAN_POINT('Ctrl Pts',(5.88395386081849,-16.8933405911415,16.9181802422356));
#197=CARTESIAN_POINT('Ctrl Pts',(8.04974515720018,-15.9752162934555,17.7876977660452));
#198=CARTESIAN_POINT('Ctrl Pts',(9.07673238046964,-15.4127180935455,18.284692239458));
#199=CARTESIAN_POINT('Ctrl Pts',(10.9752881558966,-14.1238096713957,19.297664360293));
#200=CARTESIAN_POINT('Ctrl Pts',(11.8467614759347,-13.396950612425,19.8132493047681));
#201=CARTESIAN_POINT('Ctrl Pts',(13.381040200504,-11.8626718878557,20.7674335651968));
#202=CARTESIAN_POINT('Ctrl Pts',(14.1044376521128,-11.0002796395908,21.243775992319));
#203=CARTESIAN_POINT('Ctrl Pts',(15.3977510193714,-9.10222924841,22.1235981085861));
#204=CARTESIAN_POINT('Ctrl Pts',(15.9677177333122,-8.06642161260087,22.5266805710345));
#205=CARTESIAN_POINT('Ctrl Pts',(16.8962305606327,-5.87814372780859,23.1940925793297));
#206=CARTESIAN_POINT('Ctrl Pts',(17.2555591267955,-4.7232126308498,23.4588171566727));
#207=CARTESIAN_POINT('Ctrl Pts',(17.7325475514392,-2.3706150434361,23.811867299209));
#208=CARTESIAN_POINT('Ctrl Pts',(17.85,-1.17287756692604,23.9));
#209=CARTESIAN_POINT('Ctrl Pts',(17.85,1.17287756692604,23.9));
#210=CARTESIAN_POINT('Ctrl Pts',(17.7325475514392,2.3706150434361,23.811867299209));
#211=CARTESIAN_POINT('Ctrl Pts',(17.2555591267955,4.7232126308498,23.4588171566727));
#212=CARTESIAN_POINT('Ctrl Pts',(16.8962305606327,5.87814372780859,23.1940925793297));
#213=CARTESIAN_POINT('Ctrl Pts',(15.9677177333122,8.06642161260087,22.5266805710345));
#214=CARTESIAN_POINT('Ctrl Pts',(15.3977510193714,9.10222924841001,22.1235981085861));
#215=CARTESIAN_POINT('Ctrl Pts',(14.1044376521128,11.0002796395908,21.243775992319));
#216=CARTESIAN_POINT('Ctrl Pts',(13.381040200504,11.8626718878557,20.7674335651968));
#217=CARTESIAN_POINT('Ctrl Pts',(11.8467614759347,13.396950612425,19.8132493047681));
#218=CARTESIAN_POINT('Ctrl Pts',(10.9752881558966,14.1238096713957,19.297664360293));
#219=CARTESIAN_POINT('Ctrl Pts',(9.07673238046964,15.4127180935455,18.284692239458));
#220=CARTESIAN_POINT('Ctrl Pts',(8.04974515720018,15.9752162934555,17.7876977660452));
#221=CARTESIAN_POINT('Ctrl Pts',(5.88395386081849,16.8933405911415,16.9181802422356));
#222=CARTESIAN_POINT('Ctrl Pts',(4.74301694427157,17.249808875796,16.546217121557));
#223=CARTESIAN_POINT('Ctrl Pts',(2.40004311102756,17.7282798805439,16.0325076379177));
#224=CARTESIAN_POINT('Ctrl Pts',(1.1974578549461,17.85,15.8930016044799));
#225=CARTESIAN_POINT('Ctrl Pts',(-1.1974578549461,17.85,15.8930016044799));
#226=CARTESIAN_POINT('Ctrl Pts',(-2.40004311102757,17.7282798805439,16.0325076379177));
#227=CARTESIAN_POINT('Ctrl Pts',(-4.74301694427157,17.249808875796,16.546217121557));
#228=CARTESIAN_POINT('Ctrl Pts',(-5.88395386081849,16.8933405911415,16.9181802422356));
#229=CARTESIAN_POINT('Ctrl Pts',(-8.04974515720018,15.9752162934555,17.7876977660452));
#230=CARTESIAN_POINT('Ctrl Pts',(-9.07673238046964,15.4127180935455,18.284692239458));
#231=CARTESIAN_POINT('Ctrl Pts',(-10.9752881558966,14.1238096713957,19.297664360293));
#232=CARTESIAN_POINT('Ctrl Pts',(-11.8467614759347,13.396950612425,19.8132493047681));
#233=CARTESIAN_POINT('Ctrl Pts',(-13.381040200504,11.8626718878557,20.7674335651968));
#234=CARTESIAN_POINT('Ctrl Pts',(-14.1044376521128,11.0002796395908,21.243775992319));
#235=CARTESIAN_POINT('Ctrl Pts',(-15.3977510193714,9.10222924841,22.1235981085861));
#236=CARTESIAN_POINT('Ctrl Pts',(-15.9677177333122,8.06642161260086,22.5266805710345));
#237=CARTESIAN_POINT('Ctrl Pts',(-16.8962305606327,5.87814372780859,23.1940925793297));
#238=CARTESIAN_POINT('Ctrl Pts',(-17.2555591267955,4.7232126308498,23.4588171566727));
#239=CARTESIAN_POINT('Ctrl Pts',(-17.7325475514392,2.3706150434361,23.811867299209));
#240=CARTESIAN_POINT('Ctrl Pts',(-17.85,1.17287756692604,23.9));
#241=CARTESIAN_POINT('Ctrl Pts',(-17.85,2.4980018054066E-15,23.9));
#242=CARTESIAN_POINT('Ctrl Pts',(-17.85,2.4980018054066E-15,23.9));
#243=CARTESIAN_POINT('Ctrl Pts',(-17.85,-1.17287756692603,23.9));
#244=CARTESIAN_POINT('Ctrl Pts',(-17.7325475514392,-2.3706150434361,23.811867299209));
#245=CARTESIAN_POINT('Ctrl Pts',(-17.2555591267955,-4.72321263084979,23.4588171566727));
#246=CARTESIAN_POINT('Ctrl Pts',(-16.8962305606327,-5.87814372780858,23.1940925793297));
#247=CARTESIAN_POINT('Ctrl Pts',(-15.9677177333122,-8.06642161260086,22.5266805710345));
#248=CARTESIAN_POINT('Ctrl Pts',(-15.3977510193714,-9.10222924840999,22.1235981085861));
#249=CARTESIAN_POINT('Ctrl Pts',(-14.1044376521128,-11.0002796395908,21.243775992319));
#250=CARTESIAN_POINT('Ctrl Pts',(-13.381040200504,-11.8626718878557,20.7674335651968));
#251=CARTESIAN_POINT('Ctrl Pts',(-11.8467614759347,-13.396950612425,19.8132493047681));
#252=CARTESIAN_POINT('Ctrl Pts',(-10.9752881558966,-14.1238096713957,19.297664360293));
#253=CARTESIAN_POINT('Ctrl Pts',(-9.07673238046964,-15.4127180935455,18.284692239458));
#254=CARTESIAN_POINT('Ctrl Pts',(-8.04974515720018,-15.9752162934555,17.7876977660452));
#255=CARTESIAN_POINT('Ctrl Pts',(-5.88395386081849,-16.8933405911415,16.9181802422356));
#256=CARTESIAN_POINT('Ctrl Pts',(-4.74301694427157,-17.249808875796,16.546217121557));
#257=CARTESIAN_POINT('Ctrl Pts',(-2.40004311102757,-17.7282798805439,16.0325076379177));
#258=CARTESIAN_POINT('Ctrl Pts',(-1.1974578549461,-17.85,15.8930016044799));
#259=CARTESIAN_POINT('Ctrl Pts',(0.,-17.85,15.8930016044799));
#260=CARTESIAN_POINT('',(-17.85,2.18599453647803E-15,29.6));
#261=CARTESIAN_POINT('',(-17.85,-2.18599453647803E-15,0.));
#262=CARTESIAN_POINT('Origin',(0.,0.,29.6));
#263=CARTESIAN_POINT('Origin',(0.,0.,0.));
#264=CARTESIAN_POINT('',(-62.,-23.9,-2.92690584996217E-15));
#265=CARTESIAN_POINT('Origin',(-62.,0.,0.));
#266=CARTESIAN_POINT('',(62.,-23.9,2.92690584996217E-15));
#267=CARTESIAN_POINT('',(0.,-23.9,-2.92690584996217E-15));
#268=CARTESIAN_POINT('Origin',(62.,0.,0.));
#269=CARTESIAN_POINT('Origin',(0.,0.,0.));
#270=CARTESIAN_POINT('',(-19.05,-2.33295215237571E-15,29.6));
#271=CARTESIAN_POINT('Origin',(0.,0.,29.6));
#272=CARTESIAN_POINT('',(-19.05,-2.41547697889115E-15,25.4));
#273=CARTESIAN_POINT('',(-19.05,-2.33295215237571E-15,0.));
#274=CARTESIAN_POINT('',(2.77555756156289E-16,-19.05,16.8005208252601));
#275=CARTESIAN_POINT('Ctrl Pts',(2.77555756156289E-16,-19.05,16.8005208252601));
#276=CARTESIAN_POINT('Ctrl Pts',(-1.27918700315691,-19.05,16.8005208252601));
#277=CARTESIAN_POINT('Ctrl Pts',(-2.56308759388034,-18.919874029398,16.9511126930328));
#278=CARTESIAN_POINT('Ctrl Pts',(-5.06372240471892,-18.4089589184088,17.5046303805789));
#279=CARTESIAN_POINT('Ctrl Pts',(-6.28105791965025,-18.0284680866023,17.905112169429));
#280=CARTESIAN_POINT('Ctrl Pts',(-8.59181370043796,-17.0486995552289,18.8403951781176));
#281=CARTESIAN_POINT('Ctrl Pts',(-9.68748970773228,-16.4485200644927,19.3745997772681));
#282=CARTESIAN_POINT('Ctrl Pts',(-11.7132237977976,-15.0732099237905,20.4628265771762));
#283=CARTESIAN_POINT('Ctrl Pts',(-12.643172590028,-14.2975957731795,21.0164410754668));
#284=CARTESIAN_POINT('Ctrl Pts',(-14.2801969986628,-12.6605713645447,22.0404706315577));
#285=CARTESIAN_POINT('Ctrl Pts',(-15.0519994812231,-11.7405799416763,22.5514221249927));
#286=CARTESIAN_POINT('Ctrl Pts',(-16.4320792012164,-9.71548655519031,23.4950458229622));
#287=CARTESIAN_POINT('Ctrl Pts',(-17.0404091967178,-8.61022407552645,23.9272963319423));
#288=CARTESIAN_POINT('Ctrl Pts',(-18.0315552780301,-6.27491307137472,24.6429897709618));
#289=CARTESIAN_POINT('Ctrl Pts',(-18.415207626104,-5.04223283344094,24.9268600684991));
#290=CARTESIAN_POINT('Ctrl Pts',(-18.9245409284108,-2.53095525913967,25.30546838753));
#291=CARTESIAN_POINT('Ctrl Pts',(-19.05,-1.2522818117171,25.4));
#292=CARTESIAN_POINT('Ctrl Pts',(-19.05,-2.77555756156289E-15,25.4));
#293=CARTESIAN_POINT('Ctrl Pts',(-19.05,-2.4980018054066E-15,25.4));
#294=CARTESIAN_POINT('Ctrl Pts',(-19.05,1.25228181171709,25.4));
#295=CARTESIAN_POINT('Ctrl Pts',(-18.9245409284108,2.53095525913967,25.30546838753));
#296=CARTESIAN_POINT('Ctrl Pts',(-18.415207626104,5.04223283344094,24.9268600684991));
#297=CARTESIAN_POINT('Ctrl Pts',(-18.0315552780301,6.27491307137471,24.6429897709618));
#298=CARTESIAN_POINT('Ctrl Pts',(-17.0404091967178,8.61022407552644,23.9272963319423));
#299=CARTESIAN_POINT('Ctrl Pts',(-16.4320792012164,9.71548655519031,23.4950458229622));
#300=CARTESIAN_POINT('Ctrl Pts',(-15.0519994812231,11.7405799416762,22.5514221249927));
#301=CARTESIAN_POINT('Ctrl Pts',(-14.2801969986628,12.6605713645447,22.0404706315577));
#302=CARTESIAN_POINT('Ctrl Pts',(-12.643172590028,14.2975957731795,21.0164410754668));
#303=CARTESIAN_POINT('Ctrl Pts',(-11.7132237977976,15.0732099237905,20.4628265771762));
#304=CARTESIAN_POINT('Ctrl Pts',(-9.68748970773228,16.4485200644927,19.3745997772681));
#305=CARTESIAN_POINT('Ctrl Pts',(-8.59181370043797,17.0486995552289,18.8403951781176));
#306=CARTESIAN_POINT('Ctrl Pts',(-6.28105791965025,18.0284680866023,17.905112169429));
#307=CARTESIAN_POINT('Ctrl Pts',(-5.06372240471893,18.4089589184088,17.5046303805789));
#308=CARTESIAN_POINT('Ctrl Pts',(-2.56308759388034,18.919874029398,16.9511126930328));
#309=CARTESIAN_POINT('Ctrl Pts',(-1.27918700315691,19.05,16.8005208252601));
#310=CARTESIAN_POINT('Ctrl Pts',(1.27918700315691,19.05,16.8005208252601));
#311=CARTESIAN_POINT('Ctrl Pts',(2.56308759388034,18.919874029398,16.9511126930328));
#312=CARTESIAN_POINT('Ctrl Pts',(5.06372240471892,18.4089589184088,17.5046303805789));
#313=CARTESIAN_POINT('Ctrl Pts',(6.28105791965025,18.0284680866023,17.905112169429));
#314=CARTESIAN_POINT('Ctrl Pts',(8.59181370043796,17.0486995552289,18.8403951781176));
#315=CARTESIAN_POINT('Ctrl Pts',(9.68748970773228,16.4485200644927,19.3745997772681));
#316=CARTESIAN_POINT('Ctrl Pts',(11.7132237977976,15.0732099237905,20.4628265771762));
#317=CARTESIAN_POINT('Ctrl Pts',(12.643172590028,14.2975957731795,21.0164410754668));
#318=CARTESIAN_POINT('Ctrl Pts',(14.2801969986628,12.6605713645447,22.0404706315577));
#319=CARTESIAN_POINT('Ctrl Pts',(15.0519994812231,11.7405799416763,22.5514221249927));
#320=CARTESIAN_POINT('Ctrl Pts',(16.4320792012164,9.71548655519032,23.4950458229622));
#321=CARTESIAN_POINT('Ctrl Pts',(17.0404091967178,8.61022407552645,23.9272963319423));
#322=CARTESIAN_POINT('Ctrl Pts',(18.0315552780301,6.27491307137472,24.6429897709618));
#323=CARTESIAN_POINT('Ctrl Pts',(18.415207626104,5.04223283344095,24.9268600684991));
#324=CARTESIAN_POINT('Ctrl Pts',(18.9245409284108,2.53095525913968,25.30546838753));
#325=CARTESIAN_POINT('Ctrl Pts',(19.05,1.2522818117171,25.4));
#326=CARTESIAN_POINT('Ctrl Pts',(19.05,-1.25228181171709,25.4));
#327=CARTESIAN_POINT('Ctrl Pts',(18.9245409284108,-2.53095525913967,25.30546838753));
#328=CARTESIAN_POINT('Ctrl Pts',(18.415207626104,-5.04223283344094,24.9268600684991));
#329=CARTESIAN_POINT('Ctrl Pts',(18.0315552780301,-6.27491307137471,24.6429897709618));
#330=CARTESIAN_POINT('Ctrl Pts',(17.0404091967178,-8.61022407552644,23.9272963319423));
#331=CARTESIAN_POINT('Ctrl Pts',(16.4320792012164,-9.7154865551903,23.4950458229622));
#332=CARTESIAN_POINT('Ctrl Pts',(15.0519994812231,-11.7405799416762,22.5514221249927));
#333=CARTESIAN_POINT('Ctrl Pts',(14.2801969986628,-12.6605713645447,22.0404706315577));
#334=CARTESIAN_POINT('Ctrl Pts',(12.643172590028,-14.2975957731794,21.0164410754668));
#335=CARTESIAN_POINT('Ctrl Pts',(11.7132237977976,-15.0732099237905,20.4628265771762));
#336=CARTESIAN_POINT('Ctrl Pts',(9.68748970773229,-16.4485200644927,19.3745997772681));
#337=CARTESIAN_POINT('Ctrl Pts',(8.59181370043798,-17.0486995552289,18.8403951781176));
#338=CARTESIAN_POINT('Ctrl Pts',(6.28105791965026,-18.0284680866023,17.905112169429));
#339=CARTESIAN_POINT('Ctrl Pts',(5.06372240471893,-18.4089589184088,17.5046303805789));
#340=CARTESIAN_POINT('Ctrl Pts',(2.56308759388035,-18.919874029398,16.9511126930328));
#341=CARTESIAN_POINT('Ctrl Pts',(1.27918700315692,-19.05,16.8005208252601));
#342=CARTESIAN_POINT('Ctrl Pts',(-2.77555756156289E-16,-19.05,16.8005208252601));
#343=CARTESIAN_POINT('Origin',(0.,0.,29.6));
#344=CARTESIAN_POINT('Origin',(-62.,0.,0.));
#345=CARTESIAN_POINT('',(-62.,-25.4,-3.11060286983428E-15));
#346=CARTESIAN_POINT('Origin',(-62.,0.,0.));
#347=CARTESIAN_POINT('Origin',(0.,0.,0.));
#348=CARTESIAN_POINT('',(62.,-25.4,-3.11060286983428E-15));
#349=CARTESIAN_POINT('Origin',(62.,0.,0.));
#350=CARTESIAN_POINT('',(0.,-25.4,-3.11060286983428E-15));
#351=CARTESIAN_POINT('Origin',(62.,0.,0.));
#352=UNCERTAINTY_MEASURE_WITH_UNIT(LENGTH_MEASURE(0.01),#356,
'DISTANCE_ACCURACY_VALUE',
'Maximum model space distance between geometric entities at asserted c
onnectivities');
#353=UNCERTAINTY_MEASURE_WITH_UNIT(LENGTH_MEASURE(0.01),#356,
'DISTANCE_ACCURACY_VALUE',
'Maximum model space distance between geometric entities at asserted c
onnectivities');
#354=(
GEOMETRIC_REPRESENTATION_CONTEXT(3)
GLOBAL_UNCERTAINTY_ASSIGNED_CONTEXT((#352))
GLOBAL_UNIT_ASSIGNED_CONTEXT((#356,#358,#359))
REPRESENTATION_CONTEXT('','3D')
);
#355=(
GEOMETRIC_REPRESENTATION_CONTEXT(3)
GLOBAL_UNCERTAINTY_ASSIGNED_CONTEXT((#353))
GLOBAL_UNIT_ASSIGNED_CONTEXT((#356,#358,#359))
REPRESENTATION_CONTEXT('','3D')
);
#356=(
LENGTH_UNIT()
NAMED_UNIT(*)
SI_UNIT(.MILLI.,.METRE.)
);
#357=(
LENGTH_UNIT()
NAMED_UNIT(*)
SI_UNIT(.CENTI.,.METRE.)
);
#358=(
NAMED_UNIT(*)
PLANE_ANGLE_UNIT()
SI_UNIT($,.RADIAN.)
);
#359=(
NAMED_UNIT(*)
SI_UNIT($,.STERADIAN.)
SOLID_ANGLE_UNIT()
);
#360=SHAPE_DEFINITION_REPRESENTATION(#361,#362);
#361=PRODUCT_DEFINITION_SHAPE('',$,#364);
#362=SHAPE_REPRESENTATION('',(#142),#354);
#363=PRODUCT_DEFINITION_CONTEXT('part definition',#368,'design');
#364=PRODUCT_DEFINITION('T-8 20\X\D715','T-8 20\X\D715',#365,#363);
#365=PRODUCT_DEFINITION_FORMATION('',$,#370);
#366=PRODUCT_RELATED_PRODUCT_CATEGORY('T-8 20\X\D715','T-8 20\X\D715',(#370));
#367=APPLICATION_PROTOCOL_DEFINITION('international standard',
'automotive_design',2009,#368);
#368=APPLICATION_CONTEXT(
'Core Data for Automotive Mechanical Design Process');
#369=PRODUCT_CONTEXT('part definition',#368,'mechanical');
#370=PRODUCT('T-8 20\X\D715','T-8 20\X\D715',$,(#369));
#371=PRESENTATION_STYLE_ASSIGNMENT((#372));
#372=SURFACE_STYLE_USAGE(.BOTH.,#375);
#373=SURFACE_STYLE_RENDERING_WITH_PROPERTIES($,#379,(#374));
#374=SURFACE_STYLE_TRANSPARENT(0.);
#375=SURFACE_SIDE_STYLE('',(#376,#373));
#376=SURFACE_STYLE_FILL_AREA(#377);
#377=FILL_AREA_STYLE('',(#378));
#378=FILL_AREA_STYLE_COLOUR('',#379);
#379=COLOUR_RGB('',0.749019607843137,0.749019607843137,0.749019607843137);
ENDSEC;
END-ISO-10303-21;
