ISO-10303-21;
HEADER;
/* Generated by software containing ST-Developer
 * from STEP Tools, Inc. (www.steptools.com) 
 */

FILE_DESCRIPTION(
/* description */ (''),
/* implementation_level */ '2;1');

FILE_NAME(
/* name */ 
'\\\\Tske00\\w\\Work\\TOSTE\\\X2\7D99624B\X0\\\02_\X2\6EB663A5\X0\\\\X2\6EB663A5752830C130FC30BA\X0\\\
T-8\\T-8 20\X\D702.stp',
/* time_stamp */ '2022-04-28T09:31:50+09:00',
/* author */ ('3dcad-eng'),
/* organization */ (''),
/* preprocessor_version */ 'ST-DEVELOPER v18.1',
/* originating_system */ 'Autodesk Inventor 2022',
/* authorisation */ '');

FILE_SCHEMA (('AUTOMOTIVE_DESIGN { 1 0 10303 214 3 1 1 }'));
ENDSEC;

DATA;
#10=MECHANICAL_DESIGN_GEOMETRIC_PRESENTATION_REPRESENTATION('',(#13),#291);
#11=SHAPE_REPRESENTATION_RELATIONSHIP('SRR','None',#298,#12);
#12=ADVANCED_BREP_SHAPE_REPRESENTATION('',(#14),#290);
#13=STYLED_ITEM('',(#307),#14);
#14=MANIFOLD_SOLID_BREP('\X2\30BD30EA30C330C9\X0\1',#123);
#15=PLANE('',#150);
#16=PLANE('',#151);
#17=PLANE('',#155);
#18=FACE_BOUND('',#32,.T.);
#19=FACE_BOUND('',#35,.T.);
#20=FACE_BOUND('',#37,.T.);
#21=FACE_BOUND('',#39,.T.);
#22=FACE_BOUND('',#41,.T.);
#23=FACE_OUTER_BOUND('',#30,.T.);
#24=FACE_OUTER_BOUND('',#31,.T.);
#25=FACE_OUTER_BOUND('',#33,.T.);
#26=FACE_OUTER_BOUND('',#34,.T.);
#27=FACE_OUTER_BOUND('',#36,.T.);
#28=FACE_OUTER_BOUND('',#38,.T.);
#29=FACE_OUTER_BOUND('',#40,.T.);
#30=EDGE_LOOP('',(#84,#85,#86,#87,#88));
#31=EDGE_LOOP('',(#89,#90,#91,#92));
#32=EDGE_LOOP('',(#93,#94));
#33=EDGE_LOOP('',(#95,#96,#97,#98,#99));
#34=EDGE_LOOP('',(#100));
#35=EDGE_LOOP('',(#101));
#36=EDGE_LOOP('',(#102));
#37=EDGE_LOOP('',(#103));
#38=EDGE_LOOP('',(#104,#105,#106,#107));
#39=EDGE_LOOP('',(#108,#109));
#40=EDGE_LOOP('',(#110));
#41=EDGE_LOOP('',(#111));
#42=CIRCLE('',#144,5.25);
#43=CIRCLE('',#146,23.9);
#44=CIRCLE('',#147,23.9);
#45=CIRCLE('',#149,6.9);
#46=CIRCLE('',#152,25.4);
#47=CIRCLE('',#154,25.4);
#48=LINE('',#229,#52);
#49=LINE('',#235,#53);
#50=LINE('',#241,#54);
#51=LINE('',#286,#55);
#52=VECTOR('',#160,5.25);
#53=VECTOR('',#167,23.9);
#54=VECTOR('',#174,6.9);
#55=VECTOR('',#185,25.4);
#56=B_SPLINE_CURVE_WITH_KNOTS('',3,(#192,#193,#194,#195,#196,#197,#198,
#199,#200,#201,#202,#203,#204,#205,#206,#207,#208,#209,#210,#211,#212,#213,
#214,#215,#216,#217),.UNSPECIFIED.,.F.,.F.,(4,2,2,2,2,2,2,2,2,2,2,2,4),
(0.,0.198466908656037,0.396933817312073,0.595384413341857,0.793835009371641,
0.992285605401425,1.19073620143121,1.38920311008725,1.58767001874328,1.78613692739932,
1.98460383605536,2.18305443208514,2.38150502811492),.UNSPECIFIED.);
#57=B_SPLINE_CURVE_WITH_KNOTS('',3,(#218,#219,#220,#221,#222,#223,#224,
#225,#226,#227),.UNSPECIFIED.,.F.,.F.,(4,2,2,2,4),(2.38150502811492,2.57995562414471,
2.77840622017449,2.97687312883053,3.17534003748656),.UNSPECIFIED.);
#58=B_SPLINE_CURVE_WITH_KNOTS('',3,(#243,#244,#245,#246,#247,#248,#249,
#250,#251,#252),.UNSPECIFIED.,.F.,.F.,(4,2,2,2,4),(0.,0.261361317957875,
0.52272263591575,0.784032440699671,1.04534224548359),.UNSPECIFIED.);
#59=B_SPLINE_CURVE_WITH_KNOTS('',3,(#253,#254,#255,#256,#257,#258,#259,
#260,#261,#262,#263,#264,#265,#266,#267,#268,#269,#270,#271,#272,#273,#274,
#275,#276,#277,#278),.UNSPECIFIED.,.F.,.F.,(4,2,2,2,2,2,2,2,2,2,2,2,4),
(1.04534224548359,1.30665205026751,1.56796185505143,1.82932317300931,2.09068449096718,
2.35204580892506,2.61340712688293,2.87471693166685,3.13602673645077,3.3973365412347,
3.65864634601862,3.92000766397649,4.18136898193437),.UNSPECIFIED.);
#60=VERTEX_POINT('',#190);
#61=VERTEX_POINT('',#191);
#62=VERTEX_POINT('',#228);
#63=VERTEX_POINT('',#232);
#64=VERTEX_POINT('',#234);
#65=VERTEX_POINT('',#238);
#66=VERTEX_POINT('',#240);
#67=VERTEX_POINT('',#242);
#68=VERTEX_POINT('',#281);
#69=VERTEX_POINT('',#284);
#70=EDGE_CURVE('',#60,#61,#56,.T.);
#71=EDGE_CURVE('',#61,#60,#57,.T.);
#72=EDGE_CURVE('',#61,#62,#48,.T.);
#73=EDGE_CURVE('',#62,#62,#42,.T.);
#74=EDGE_CURVE('',#63,#63,#43,.T.);
#75=EDGE_CURVE('',#63,#64,#49,.T.);
#76=EDGE_CURVE('',#64,#64,#44,.T.);
#77=EDGE_CURVE('',#65,#65,#45,.T.);
#78=EDGE_CURVE('',#65,#66,#50,.T.);
#79=EDGE_CURVE('',#67,#66,#58,.T.);
#80=EDGE_CURVE('',#66,#67,#59,.T.);
#81=EDGE_CURVE('',#68,#68,#46,.T.);
#82=EDGE_CURVE('',#69,#69,#47,.T.);
#83=EDGE_CURVE('',#69,#68,#51,.T.);
#84=ORIENTED_EDGE('',*,*,#70,.F.);
#85=ORIENTED_EDGE('',*,*,#71,.F.);
#86=ORIENTED_EDGE('',*,*,#72,.T.);
#87=ORIENTED_EDGE('',*,*,#73,.F.);
#88=ORIENTED_EDGE('',*,*,#72,.F.);
#89=ORIENTED_EDGE('',*,*,#74,.F.);
#90=ORIENTED_EDGE('',*,*,#75,.T.);
#91=ORIENTED_EDGE('',*,*,#76,.F.);
#92=ORIENTED_EDGE('',*,*,#75,.F.);
#93=ORIENTED_EDGE('',*,*,#70,.T.);
#94=ORIENTED_EDGE('',*,*,#71,.T.);
#95=ORIENTED_EDGE('',*,*,#77,.F.);
#96=ORIENTED_EDGE('',*,*,#78,.T.);
#97=ORIENTED_EDGE('',*,*,#79,.F.);
#98=ORIENTED_EDGE('',*,*,#80,.F.);
#99=ORIENTED_EDGE('',*,*,#78,.F.);
#100=ORIENTED_EDGE('',*,*,#77,.T.);
#101=ORIENTED_EDGE('',*,*,#73,.T.);
#102=ORIENTED_EDGE('',*,*,#81,.T.);
#103=ORIENTED_EDGE('',*,*,#74,.T.);
#104=ORIENTED_EDGE('',*,*,#82,.F.);
#105=ORIENTED_EDGE('',*,*,#83,.T.);
#106=ORIENTED_EDGE('',*,*,#81,.F.);
#107=ORIENTED_EDGE('',*,*,#83,.F.);
#108=ORIENTED_EDGE('',*,*,#79,.T.);
#109=ORIENTED_EDGE('',*,*,#80,.T.);
#110=ORIENTED_EDGE('',*,*,#82,.T.);
#111=ORIENTED_EDGE('',*,*,#76,.T.);
#112=CYLINDRICAL_SURFACE('',#143,5.25);
#113=CYLINDRICAL_SURFACE('',#145,23.9);
#114=CYLINDRICAL_SURFACE('',#148,6.9);
#115=CYLINDRICAL_SURFACE('',#153,25.4);
#116=ADVANCED_FACE('',(#23),#112,.F.);
#117=ADVANCED_FACE('',(#24,#18),#113,.F.);
#118=ADVANCED_FACE('',(#25),#114,.T.);
#119=ADVANCED_FACE('',(#26,#19),#15,.T.);
#120=ADVANCED_FACE('',(#27,#20),#16,.F.);
#121=ADVANCED_FACE('',(#28,#21),#115,.T.);
#122=ADVANCED_FACE('',(#29,#22),#17,.T.);
#123=CLOSED_SHELL('',(#116,#117,#118,#119,#120,#121,#122));
#124=DERIVED_UNIT_ELEMENT(#126,1.);
#125=DERIVED_UNIT_ELEMENT(#293,-3.);
#126=(
MASS_UNIT()
NAMED_UNIT(*)
SI_UNIT($,.GRAM.)
);
#127=DERIVED_UNIT((#124,#125));
#128=MEASURE_REPRESENTATION_ITEM('density measure',
POSITIVE_RATIO_MEASURE(1.),#127);
#129=PROPERTY_DEFINITION_REPRESENTATION(#134,#131);
#130=PROPERTY_DEFINITION_REPRESENTATION(#135,#132);
#131=REPRESENTATION('material name',(#133),#290);
#132=REPRESENTATION('density',(#128),#290);
#133=DESCRIPTIVE_REPRESENTATION_ITEM('\X2\4E00822C\X0\','\X2\4E00822C\X0\');
#134=PROPERTY_DEFINITION('material property','material name',#300);
#135=PROPERTY_DEFINITION('material property','density of part',#300);
#136=DATE_TIME_ROLE('creation_date');
#137=APPLIED_DATE_AND_TIME_ASSIGNMENT(#138,#136,(#300));
#138=DATE_AND_TIME(#139,#140);
#139=CALENDAR_DATE(2022,31,3);
#140=LOCAL_TIME(0,0,0.,#141);
#141=COORDINATED_UNIVERSAL_TIME_OFFSET(0,0,.BEHIND.);
#142=AXIS2_PLACEMENT_3D('placement',#188,#156,#157);
#143=AXIS2_PLACEMENT_3D('',#189,#158,#159);
#144=AXIS2_PLACEMENT_3D('',#230,#161,#162);
#145=AXIS2_PLACEMENT_3D('',#231,#163,#164);
#146=AXIS2_PLACEMENT_3D('',#233,#165,#166);
#147=AXIS2_PLACEMENT_3D('',#236,#168,#169);
#148=AXIS2_PLACEMENT_3D('',#237,#170,#171);
#149=AXIS2_PLACEMENT_3D('',#239,#172,#173);
#150=AXIS2_PLACEMENT_3D('',#279,#175,#176);
#151=AXIS2_PLACEMENT_3D('',#280,#177,#178);
#152=AXIS2_PLACEMENT_3D('',#282,#179,#180);
#153=AXIS2_PLACEMENT_3D('',#283,#181,#182);
#154=AXIS2_PLACEMENT_3D('',#285,#183,#184);
#155=AXIS2_PLACEMENT_3D('',#287,#186,#187);
#156=DIRECTION('axis',(0.,0.,1.));
#157=DIRECTION('refdir',(1.,0.,0.));
#158=DIRECTION('center_axis',(0.,0.,1.));
#159=DIRECTION('ref_axis',(1.,0.,0.));
#160=DIRECTION('',(0.,0.,1.));
#161=DIRECTION('center_axis',(0.,0.,-1.));
#162=DIRECTION('ref_axis',(1.,0.,0.));
#163=DIRECTION('center_axis',(1.,0.,0.));
#164=DIRECTION('ref_axis',(0.,1.,0.));
#165=DIRECTION('center_axis',(1.,0.,0.));
#166=DIRECTION('ref_axis',(0.,1.,0.));
#167=DIRECTION('',(1.,0.,0.));
#168=DIRECTION('center_axis',(-1.,0.,0.));
#169=DIRECTION('ref_axis',(0.,1.,0.));
#170=DIRECTION('center_axis',(0.,0.,1.));
#171=DIRECTION('ref_axis',(1.,0.,0.));
#172=DIRECTION('center_axis',(0.,0.,1.));
#173=DIRECTION('ref_axis',(1.,0.,0.));
#174=DIRECTION('',(0.,0.,-1.));
#175=DIRECTION('center_axis',(0.,0.,1.));
#176=DIRECTION('ref_axis',(1.,0.,0.));
#177=DIRECTION('center_axis',(1.,0.,0.));
#178=DIRECTION('ref_axis',(0.,0.,-1.));
#179=DIRECTION('center_axis',(-1.,0.,0.));
#180=DIRECTION('ref_axis',(0.,1.,0.));
#181=DIRECTION('center_axis',(1.,0.,0.));
#182=DIRECTION('ref_axis',(0.,1.,0.));
#183=DIRECTION('center_axis',(1.,0.,0.));
#184=DIRECTION('ref_axis',(0.,1.,0.));
#185=DIRECTION('',(-1.,0.,0.));
#186=DIRECTION('center_axis',(1.,0.,0.));
#187=DIRECTION('ref_axis',(0.,0.,-1.));
#188=CARTESIAN_POINT('',(0.,0.,0.));
#189=CARTESIAN_POINT('Origin',(0.,0.,0.));
#190=CARTESIAN_POINT('',(-2.77555756156289E-16,-5.25,23.3162496984399));
#191=CARTESIAN_POINT('',(-5.25,1.64252788497326E-16,23.9));
#192=CARTESIAN_POINT('Ctrl Pts',(-2.77555756156289E-16,-5.25,23.3162496984399));
#193=CARTESIAN_POINT('Ctrl Pts',(0.661556362186788,-5.25,23.3162496984399));
#194=CARTESIAN_POINT('Ctrl Pts',(1.36567448711779,-5.1173447664824,23.3473298966833));
#195=CARTESIAN_POINT('Ctrl Pts',(2.65849135197573,-4.58090710173976,23.4584807543517));
#196=CARTESIAN_POINT('Ctrl Pts',(3.2473843655706,-4.17723683688815,23.5368263116396));
#197=CARTESIAN_POINT('Ctrl Pts',(4.1771986231226,-3.24742257933615,23.6830257905702));
#198=CARTESIAN_POINT('Ctrl Pts',(4.58089877395279,-2.65851345260304,23.7605380712626));
#199=CARTESIAN_POINT('Ctrl Pts',(5.11735816316332,-1.36564017041872,23.8697693770242));
#200=CARTESIAN_POINT('Ctrl Pts',(5.25,-0.661501986765947,23.9));
#201=CARTESIAN_POINT('Ctrl Pts',(5.25,0.661501986765947,23.9));
#202=CARTESIAN_POINT('Ctrl Pts',(5.11735816316332,1.36564017041872,23.8697693770242));
#203=CARTESIAN_POINT('Ctrl Pts',(4.58089877395279,2.65851345260304,23.7605380712626));
#204=CARTESIAN_POINT('Ctrl Pts',(4.1771986231226,3.24742257933615,23.6830257905702));
#205=CARTESIAN_POINT('Ctrl Pts',(3.2473843655706,4.17723683688815,23.5368263116396));
#206=CARTESIAN_POINT('Ctrl Pts',(2.65849135197573,4.58090710173976,23.4584807543517));
#207=CARTESIAN_POINT('Ctrl Pts',(1.36567448711779,5.1173447664824,23.3473298966833));
#208=CARTESIAN_POINT('Ctrl Pts',(0.661556362186788,5.25,23.3162496984399));
#209=CARTESIAN_POINT('Ctrl Pts',(-0.661556362186788,5.25,23.3162496984399));
#210=CARTESIAN_POINT('Ctrl Pts',(-1.36567448711779,5.1173447664824,23.3473298966833));
#211=CARTESIAN_POINT('Ctrl Pts',(-2.65849135197573,4.58090710173976,23.4584807543517));
#212=CARTESIAN_POINT('Ctrl Pts',(-3.2473843655706,4.17723683688815,23.5368263116396));
#213=CARTESIAN_POINT('Ctrl Pts',(-4.1771986231226,3.24742257933615,23.6830257905702));
#214=CARTESIAN_POINT('Ctrl Pts',(-4.58089877395279,2.65851345260304,23.7605380712626));
#215=CARTESIAN_POINT('Ctrl Pts',(-5.11735816316332,1.36564017041872,23.8697693770242));
#216=CARTESIAN_POINT('Ctrl Pts',(-5.25,0.661501986765947,23.9));
#217=CARTESIAN_POINT('Ctrl Pts',(-5.25,5.55111512312578E-16,23.9));
#218=CARTESIAN_POINT('Ctrl Pts',(-5.25,9.71445146547012E-16,23.9));
#219=CARTESIAN_POINT('Ctrl Pts',(-5.25,-0.661501986765946,23.9));
#220=CARTESIAN_POINT('Ctrl Pts',(-5.11735816316332,-1.36564017041872,23.8697693770242));
#221=CARTESIAN_POINT('Ctrl Pts',(-4.58089877395279,-2.65851345260304,23.7605380712626));
#222=CARTESIAN_POINT('Ctrl Pts',(-4.1771986231226,-3.24742257933615,23.6830257905702));
#223=CARTESIAN_POINT('Ctrl Pts',(-3.2473843655706,-4.17723683688815,23.5368263116396));
#224=CARTESIAN_POINT('Ctrl Pts',(-2.65849135197573,-4.58090710173976,23.4584807543517));
#225=CARTESIAN_POINT('Ctrl Pts',(-1.36567448711779,-5.1173447664824,23.3473298966833));
#226=CARTESIAN_POINT('Ctrl Pts',(-0.661556362186788,-5.25,23.3162496984399));
#227=CARTESIAN_POINT('Ctrl Pts',(2.77555756156289E-16,-5.25,23.3162496984399));
#228=CARTESIAN_POINT('',(-5.25,6.42939569552361E-16,28.1));
#229=CARTESIAN_POINT('',(-5.25,-6.42939569552361E-16,0.));
#230=CARTESIAN_POINT('Origin',(0.,0.,28.1));
#231=CARTESIAN_POINT('Origin',(0.,0.,0.));
#232=CARTESIAN_POINT('',(-62.,-23.9,-2.92690584996217E-15));
#233=CARTESIAN_POINT('Origin',(-62.,0.,0.));
#234=CARTESIAN_POINT('',(62.,-23.9,2.92690584996217E-15));
#235=CARTESIAN_POINT('',(0.,-23.9,-2.92690584996217E-15));
#236=CARTESIAN_POINT('Origin',(62.,0.,0.));
#237=CARTESIAN_POINT('Origin',(0.,0.,0.));
#238=CARTESIAN_POINT('',(-6.9,-8.45006291411674E-16,28.1));
#239=CARTESIAN_POINT('Origin',(0.,0.,28.1));
#240=CARTESIAN_POINT('',(-6.9,-1.11639253609656E-15,25.4));
#241=CARTESIAN_POINT('',(-6.9,-8.45006291411674E-16,0.));
#242=CARTESIAN_POINT('',(2.77555756156289E-16,-6.9,24.4448358554522));
#243=CARTESIAN_POINT('Ctrl Pts',(0.,-6.9,24.4448358554522));
#244=CARTESIAN_POINT('Ctrl Pts',(-0.871204393192916,-6.9,24.4448358554522));
#245=CARTESIAN_POINT('Ctrl Pts',(-1.79729032878704,-6.7249895718669,24.4962711640217));
#246=CARTESIAN_POINT('Ctrl Pts',(-3.49589390781635,-6.01950730472187,24.6791068148272));
#247=CARTESIAN_POINT('Ctrl Pts',(-4.26881910993249,-5.48925447044187,24.8075536245749));
#248=CARTESIAN_POINT('Ctrl Pts',(-5.48913419920296,-4.2689393811714,25.0464096358256));
#249=CARTESIAN_POINT('Ctrl Pts',(-6.0194805549408,-3.4959645845114,25.1727554073663));
#250=CARTESIAN_POINT('Ctrl Pts',(-6.72503139267478,-1.79718336515748,25.3507300700126));
#251=CARTESIAN_POINT('Ctrl Pts',(-6.9,-0.87103268261307,25.4));
#252=CARTESIAN_POINT('Ctrl Pts',(-6.9,-5.55111512312578E-16,25.4));
#253=CARTESIAN_POINT('Ctrl Pts',(-6.9,-1.38777878078145E-15,25.4));
#254=CARTESIAN_POINT('Ctrl Pts',(-6.9,0.871032682613069,25.4));
#255=CARTESIAN_POINT('Ctrl Pts',(-6.72503139267478,1.79718336515748,25.3507300700126));
#256=CARTESIAN_POINT('Ctrl Pts',(-6.0194805549408,3.4959645845114,25.1727554073663));
#257=CARTESIAN_POINT('Ctrl Pts',(-5.48913419920296,4.2689393811714,25.0464096358256));
#258=CARTESIAN_POINT('Ctrl Pts',(-4.26881910993249,5.48925447044187,24.8075536245749));
#259=CARTESIAN_POINT('Ctrl Pts',(-3.49589390781636,6.01950730472187,24.6791068148272));
#260=CARTESIAN_POINT('Ctrl Pts',(-1.79729032878704,6.7249895718669,24.4962711640217));
#261=CARTESIAN_POINT('Ctrl Pts',(-0.871204393192917,6.9,24.4448358554522));
#262=CARTESIAN_POINT('Ctrl Pts',(0.871204393192915,6.9,24.4448358554522));
#263=CARTESIAN_POINT('Ctrl Pts',(1.79729032878704,6.72498957186691,24.4962711640217));
#264=CARTESIAN_POINT('Ctrl Pts',(3.49589390781635,6.01950730472188,24.6791068148272));
#265=CARTESIAN_POINT('Ctrl Pts',(4.26881910993249,5.48925447044187,24.8075536245749));
#266=CARTESIAN_POINT('Ctrl Pts',(5.48913419920296,4.2689393811714,25.0464096358256));
#267=CARTESIAN_POINT('Ctrl Pts',(6.0194805549408,3.4959645845114,25.1727554073663));
#268=CARTESIAN_POINT('Ctrl Pts',(6.72503139267478,1.79718336515748,25.3507300700126));
#269=CARTESIAN_POINT('Ctrl Pts',(6.9,0.87103268261307,25.4));
#270=CARTESIAN_POINT('Ctrl Pts',(6.9,-0.871032682613067,25.4));
#271=CARTESIAN_POINT('Ctrl Pts',(6.72503139267478,-1.79718336515748,25.3507300700126));
#272=CARTESIAN_POINT('Ctrl Pts',(6.0194805549408,-3.4959645845114,25.1727554073663));
#273=CARTESIAN_POINT('Ctrl Pts',(5.48913419920296,-4.26893938117139,25.0464096358256));
#274=CARTESIAN_POINT('Ctrl Pts',(4.26881910993249,-5.48925447044187,24.8075536245749));
#275=CARTESIAN_POINT('Ctrl Pts',(3.49589390781636,-6.01950730472187,24.6791068148272));
#276=CARTESIAN_POINT('Ctrl Pts',(1.79729032878704,-6.7249895718669,24.4962711640217));
#277=CARTESIAN_POINT('Ctrl Pts',(0.871204393192917,-6.9,24.4448358554522));
#278=CARTESIAN_POINT('Ctrl Pts',(0.,-6.9,24.4448358554522));
#279=CARTESIAN_POINT('Origin',(0.,0.,28.1));
#280=CARTESIAN_POINT('Origin',(-62.,0.,0.));
#281=CARTESIAN_POINT('',(-62.,-25.4,-3.11060286983428E-15));
#282=CARTESIAN_POINT('Origin',(-62.,0.,0.));
#283=CARTESIAN_POINT('Origin',(0.,0.,0.));
#284=CARTESIAN_POINT('',(62.,-25.4,-3.11060286983428E-15));
#285=CARTESIAN_POINT('Origin',(62.,0.,0.));
#286=CARTESIAN_POINT('',(0.,-25.4,-3.11060286983428E-15));
#287=CARTESIAN_POINT('Origin',(62.,0.,0.));
#288=UNCERTAINTY_MEASURE_WITH_UNIT(LENGTH_MEASURE(0.01),#292,
'DISTANCE_ACCURACY_VALUE',
'Maximum model space distance between geometric entities at asserted c
onnectivities');
#289=UNCERTAINTY_MEASURE_WITH_UNIT(LENGTH_MEASURE(0.01),#292,
'DISTANCE_ACCURACY_VALUE',
'Maximum model space distance between geometric entities at asserted c
onnectivities');
#290=(
GEOMETRIC_REPRESENTATION_CONTEXT(3)
GLOBAL_UNCERTAINTY_ASSIGNED_CONTEXT((#288))
GLOBAL_UNIT_ASSIGNED_CONTEXT((#292,#294,#295))
REPRESENTATION_CONTEXT('','3D')
);
#291=(
GEOMETRIC_REPRESENTATION_CONTEXT(3)
GLOBAL_UNCERTAINTY_ASSIGNED_CONTEXT((#289))
GLOBAL_UNIT_ASSIGNED_CONTEXT((#292,#294,#295))
REPRESENTATION_CONTEXT('','3D')
);
#292=(
LENGTH_UNIT()
NAMED_UNIT(*)
SI_UNIT(.MILLI.,.METRE.)
);
#293=(
LENGTH_UNIT()
NAMED_UNIT(*)
SI_UNIT(.CENTI.,.METRE.)
);
#294=(
NAMED_UNIT(*)
PLANE_ANGLE_UNIT()
SI_UNIT($,.RADIAN.)
);
#295=(
NAMED_UNIT(*)
SI_UNIT($,.STERADIAN.)
SOLID_ANGLE_UNIT()
);
#296=SHAPE_DEFINITION_REPRESENTATION(#297,#298);
#297=PRODUCT_DEFINITION_SHAPE('',$,#300);
#298=SHAPE_REPRESENTATION('',(#142),#290);
#299=PRODUCT_DEFINITION_CONTEXT('part definition',#304,'design');
#300=PRODUCT_DEFINITION('T-8 20\X\D702','T-8 20\X\D702',#301,#299);
#301=PRODUCT_DEFINITION_FORMATION('',$,#306);
#302=PRODUCT_RELATED_PRODUCT_CATEGORY('T-8 20\X\D702','T-8 20\X\D702',(#306));
#303=APPLICATION_PROTOCOL_DEFINITION('international standard',
'automotive_design',2009,#304);
#304=APPLICATION_CONTEXT(
'Core Data for Automotive Mechanical Design Process');
#305=PRODUCT_CONTEXT('part definition',#304,'mechanical');
#306=PRODUCT('T-8 20\X\D702','T-8 20\X\D702',$,(#305));
#307=PRESENTATION_STYLE_ASSIGNMENT((#308));
#308=SURFACE_STYLE_USAGE(.BOTH.,#311);
#309=SURFACE_STYLE_RENDERING_WITH_PROPERTIES($,#315,(#310));
#310=SURFACE_STYLE_TRANSPARENT(0.);
#311=SURFACE_SIDE_STYLE('',(#312,#309));
#312=SURFACE_STYLE_FILL_AREA(#313);
#313=FILL_AREA_STYLE('',(#314));
#314=FILL_AREA_STYLE_COLOUR('',#315);
#315=COLOUR_RGB('',0.749019607843137,0.749019607843137,0.749019607843137);
ENDSEC;
END-ISO-10303-21;
