ISO-10303-21;
HEADER;
/* Generated by software containing ST-Developer
 * from STEP Tools, Inc. (www.steptools.com) 
 */

FILE_DESCRIPTION(
/* description */ (''),
/* implementation_level */ '2;1');

FILE_NAME(
/* name */ 
'\\\\Tske00\\w\\Work\\TOSTE\\\X2\7D99624B\X0\\\02_\X2\6EB663A5\X0\\\\X2\6EB663A5752830C130FC30BA\X0\\\
T-8\\T-8 20.stp',
/* time_stamp */ '2022-04-12T15:38:24+09:00',
/* author */ ('3dcad-eng'),
/* organization */ (''),
/* preprocessor_version */ 'ST-DEVELOPER v18.1',
/* originating_system */ 'Autodesk Inventor 2022',
/* authorisation */ '');

FILE_SCHEMA (('AUTOMOTIVE_DESIGN { 1 0 10303 214 3 1 1 }'));
ENDSEC;

DATA;
#10=MECHANICAL_DESIGN_GEOMETRIC_PRESENTATION_REPRESENTATION('',(#13),#265);
#11=SHAPE_REPRESENTATION_RELATIONSHIP('SRR','None',#272,#12);
#12=ADVANCED_BREP_SHAPE_REPRESENTATION('',(#14),#264);
#13=STYLED_ITEM('',(#281),#14);
#14=MANIFOLD_SOLID_BREP('\X2\30BD30EA30C330C9\X0\1',#139);
#15=FACE_BOUND('',#32,.T.);
#16=FACE_BOUND('',#34,.T.);
#17=FACE_BOUND('',#37,.T.);
#18=PLANE('',#172);
#19=PLANE('',#173);
#20=PLANE('',#177);
#21=FACE_OUTER_BOUND('',#28,.T.);
#22=FACE_OUTER_BOUND('',#29,.T.);
#23=FACE_OUTER_BOUND('',#30,.T.);
#24=FACE_OUTER_BOUND('',#31,.T.);
#25=FACE_OUTER_BOUND('',#33,.T.);
#26=FACE_OUTER_BOUND('',#35,.T.);
#27=FACE_OUTER_BOUND('',#36,.T.);
#28=EDGE_LOOP('',(#92,#93,#94,#95,#96,#97));
#29=EDGE_LOOP('',(#98,#99,#100,#101,#102,#103,#104,#105,#106));
#30=EDGE_LOOP('',(#107,#108,#109,#110,#111,#112));
#31=EDGE_LOOP('',(#113));
#32=EDGE_LOOP('',(#114));
#33=EDGE_LOOP('',(#115));
#34=EDGE_LOOP('',(#116));
#35=EDGE_LOOP('',(#117,#118,#119,#120,#121,#122,#123,#124,#125));
#36=EDGE_LOOP('',(#126));
#37=EDGE_LOOP('',(#127));
#38=CIRCLE('',#162,23.9);
#39=CIRCLE('',#165,23.9);
#40=CIRCLE('',#166,23.9);
#41=CIRCLE('',#168,25.4);
#42=CIRCLE('',#174,25.4);
#43=CIRCLE('',#176,25.4);
#44=LINE('',#232,#50);
#45=LINE('',#238,#51);
#46=LINE('',#240,#52);
#47=LINE('',#246,#53);
#48=LINE('',#259,#54);
#49=LINE('',#260,#55);
#50=VECTOR('',#186,23.9);
#51=VECTOR('',#195,23.9);
#52=VECTOR('',#196,23.9);
#53=VECTOR('',#203,25.4);
#54=VECTOR('',#220,25.4);
#55=VECTOR('',#221,25.4);
#56=ELLIPSE('',#160,33.799704140717,23.9);
#57=ELLIPSE('',#161,33.799704140717,23.9);
#58=ELLIPSE('',#163,33.799704140717,23.9);
#59=ELLIPSE('',#169,35.9210244842766,25.4);
#60=ELLIPSE('',#170,35.9210244842766,25.4);
#61=ELLIPSE('',#171,35.9210244842766,25.4);
#62=VERTEX_POINT('',#226);
#63=VERTEX_POINT('',#227);
#64=VERTEX_POINT('',#229);
#65=VERTEX_POINT('',#231);
#66=VERTEX_POINT('',#236);
#67=VERTEX_POINT('',#239);
#68=VERTEX_POINT('',#243);
#69=VERTEX_POINT('',#245);
#70=VERTEX_POINT('',#247);
#71=VERTEX_POINT('',#249);
#72=VERTEX_POINT('',#254);
#73=VERTEX_POINT('',#257);
#74=EDGE_CURVE('',#62,#63,#56,.T.);
#75=EDGE_CURVE('',#64,#62,#57,.T.);
#76=EDGE_CURVE('',#64,#65,#44,.T.);
#77=EDGE_CURVE('',#65,#65,#38,.T.);
#78=EDGE_CURVE('',#63,#64,#58,.T.);
#79=EDGE_CURVE('',#66,#66,#39,.T.);
#80=EDGE_CURVE('',#66,#62,#45,.T.);
#81=EDGE_CURVE('',#62,#67,#46,.T.);
#82=EDGE_CURVE('',#67,#67,#40,.T.);
#83=EDGE_CURVE('',#68,#68,#41,.T.);
#84=EDGE_CURVE('',#68,#69,#47,.T.);
#85=EDGE_CURVE('',#70,#69,#59,.T.);
#86=EDGE_CURVE('',#71,#70,#60,.T.);
#87=EDGE_CURVE('',#69,#71,#61,.T.);
#88=EDGE_CURVE('',#72,#72,#42,.T.);
#89=EDGE_CURVE('',#73,#73,#43,.T.);
#90=EDGE_CURVE('',#73,#70,#48,.T.);
#91=EDGE_CURVE('',#70,#72,#49,.T.);
#92=ORIENTED_EDGE('',*,*,#74,.F.);
#93=ORIENTED_EDGE('',*,*,#75,.F.);
#94=ORIENTED_EDGE('',*,*,#76,.T.);
#95=ORIENTED_EDGE('',*,*,#77,.F.);
#96=ORIENTED_EDGE('',*,*,#76,.F.);
#97=ORIENTED_EDGE('',*,*,#78,.F.);
#98=ORIENTED_EDGE('',*,*,#79,.F.);
#99=ORIENTED_EDGE('',*,*,#80,.T.);
#100=ORIENTED_EDGE('',*,*,#81,.T.);
#101=ORIENTED_EDGE('',*,*,#82,.F.);
#102=ORIENTED_EDGE('',*,*,#81,.F.);
#103=ORIENTED_EDGE('',*,*,#74,.T.);
#104=ORIENTED_EDGE('',*,*,#78,.T.);
#105=ORIENTED_EDGE('',*,*,#75,.T.);
#106=ORIENTED_EDGE('',*,*,#80,.F.);
#107=ORIENTED_EDGE('',*,*,#83,.F.);
#108=ORIENTED_EDGE('',*,*,#84,.T.);
#109=ORIENTED_EDGE('',*,*,#85,.F.);
#110=ORIENTED_EDGE('',*,*,#86,.F.);
#111=ORIENTED_EDGE('',*,*,#87,.F.);
#112=ORIENTED_EDGE('',*,*,#84,.F.);
#113=ORIENTED_EDGE('',*,*,#83,.T.);
#114=ORIENTED_EDGE('',*,*,#77,.T.);
#115=ORIENTED_EDGE('',*,*,#88,.T.);
#116=ORIENTED_EDGE('',*,*,#79,.T.);
#117=ORIENTED_EDGE('',*,*,#89,.F.);
#118=ORIENTED_EDGE('',*,*,#90,.T.);
#119=ORIENTED_EDGE('',*,*,#91,.T.);
#120=ORIENTED_EDGE('',*,*,#88,.F.);
#121=ORIENTED_EDGE('',*,*,#91,.F.);
#122=ORIENTED_EDGE('',*,*,#85,.T.);
#123=ORIENTED_EDGE('',*,*,#87,.T.);
#124=ORIENTED_EDGE('',*,*,#86,.T.);
#125=ORIENTED_EDGE('',*,*,#90,.F.);
#126=ORIENTED_EDGE('',*,*,#89,.T.);
#127=ORIENTED_EDGE('',*,*,#82,.T.);
#128=CYLINDRICAL_SURFACE('',#159,23.9);
#129=CYLINDRICAL_SURFACE('',#164,23.9);
#130=CYLINDRICAL_SURFACE('',#167,25.4);
#131=CYLINDRICAL_SURFACE('',#175,25.4);
#132=ADVANCED_FACE('',(#21),#128,.F.);
#133=ADVANCED_FACE('',(#22),#129,.F.);
#134=ADVANCED_FACE('',(#23),#130,.T.);
#135=ADVANCED_FACE('',(#24,#15),#18,.T.);
#136=ADVANCED_FACE('',(#25,#16),#19,.F.);
#137=ADVANCED_FACE('',(#26),#131,.T.);
#138=ADVANCED_FACE('',(#27,#17),#20,.T.);
#139=CLOSED_SHELL('',(#132,#133,#134,#135,#136,#137,#138));
#140=DERIVED_UNIT_ELEMENT(#142,1.);
#141=DERIVED_UNIT_ELEMENT(#267,-3.);
#142=(
MASS_UNIT()
NAMED_UNIT(*)
SI_UNIT($,.GRAM.)
);
#143=DERIVED_UNIT((#140,#141));
#144=MEASURE_REPRESENTATION_ITEM('density measure',
POSITIVE_RATIO_MEASURE(1.),#143);
#145=PROPERTY_DEFINITION_REPRESENTATION(#150,#147);
#146=PROPERTY_DEFINITION_REPRESENTATION(#151,#148);
#147=REPRESENTATION('material name',(#149),#264);
#148=REPRESENTATION('density',(#144),#264);
#149=DESCRIPTIVE_REPRESENTATION_ITEM('\X2\4E00822C\X0\','\X2\4E00822C\X0\');
#150=PROPERTY_DEFINITION('material property','material name',#274);
#151=PROPERTY_DEFINITION('material property','density of part',#274);
#152=DATE_TIME_ROLE('creation_date');
#153=APPLIED_DATE_AND_TIME_ASSIGNMENT(#154,#152,(#274));
#154=DATE_AND_TIME(#155,#156);
#155=CALENDAR_DATE(2022,31,3);
#156=LOCAL_TIME(0,0,0.,#157);
#157=COORDINATED_UNIVERSAL_TIME_OFFSET(0,0,.BEHIND.);
#158=AXIS2_PLACEMENT_3D('placement',#224,#178,#179);
#159=AXIS2_PLACEMENT_3D('',#225,#180,#181);
#160=AXIS2_PLACEMENT_3D('',#228,#182,#183);
#161=AXIS2_PLACEMENT_3D('',#230,#184,#185);
#162=AXIS2_PLACEMENT_3D('',#233,#187,#188);
#163=AXIS2_PLACEMENT_3D('',#234,#189,#190);
#164=AXIS2_PLACEMENT_3D('',#235,#191,#192);
#165=AXIS2_PLACEMENT_3D('',#237,#193,#194);
#166=AXIS2_PLACEMENT_3D('',#241,#197,#198);
#167=AXIS2_PLACEMENT_3D('',#242,#199,#200);
#168=AXIS2_PLACEMENT_3D('',#244,#201,#202);
#169=AXIS2_PLACEMENT_3D('',#248,#204,#205);
#170=AXIS2_PLACEMENT_3D('',#250,#206,#207);
#171=AXIS2_PLACEMENT_3D('',#251,#208,#209);
#172=AXIS2_PLACEMENT_3D('',#252,#210,#211);
#173=AXIS2_PLACEMENT_3D('',#253,#212,#213);
#174=AXIS2_PLACEMENT_3D('',#255,#214,#215);
#175=AXIS2_PLACEMENT_3D('',#256,#216,#217);
#176=AXIS2_PLACEMENT_3D('',#258,#218,#219);
#177=AXIS2_PLACEMENT_3D('',#261,#222,#223);
#178=DIRECTION('axis',(0.,0.,1.));
#179=DIRECTION('refdir',(1.,0.,0.));
#180=DIRECTION('center_axis',(0.,0.,1.));
#181=DIRECTION('ref_axis',(1.,0.,0.));
#182=DIRECTION('center_axis',(-0.707106781186548,0.,0.707106781186548));
#183=DIRECTION('ref_axis',(0.707106781186547,0.,0.707106781186547));
#184=DIRECTION('center_axis',(0.707106781186548,0.,0.707106781186548));
#185=DIRECTION('ref_axis',(0.707106781186547,0.,-0.707106781186547));
#186=DIRECTION('',(0.,0.,1.));
#187=DIRECTION('center_axis',(0.,0.,-1.));
#188=DIRECTION('ref_axis',(1.,0.,0.));
#189=DIRECTION('center_axis',(0.707106781186548,0.,0.707106781186548));
#190=DIRECTION('ref_axis',(0.707106781186547,0.,-0.707106781186547));
#191=DIRECTION('center_axis',(1.,0.,0.));
#192=DIRECTION('ref_axis',(0.,1.,0.));
#193=DIRECTION('center_axis',(1.,0.,0.));
#194=DIRECTION('ref_axis',(0.,1.,0.));
#195=DIRECTION('',(1.,0.,0.));
#196=DIRECTION('',(1.,0.,0.));
#197=DIRECTION('center_axis',(-1.,0.,0.));
#198=DIRECTION('ref_axis',(0.,1.,0.));
#199=DIRECTION('center_axis',(0.,0.,1.));
#200=DIRECTION('ref_axis',(1.,0.,0.));
#201=DIRECTION('center_axis',(0.,0.,1.));
#202=DIRECTION('ref_axis',(1.,0.,0.));
#203=DIRECTION('',(0.,0.,-1.));
#204=DIRECTION('center_axis',(-0.707106781186548,0.,-0.707106781186548));
#205=DIRECTION('ref_axis',(0.707106781186547,0.,-0.707106781186547));
#206=DIRECTION('center_axis',(0.707106781186548,0.,-0.707106781186548));
#207=DIRECTION('ref_axis',(0.707106781186547,0.,0.707106781186547));
#208=DIRECTION('center_axis',(-0.707106781186548,0.,-0.707106781186548));
#209=DIRECTION('ref_axis',(0.707106781186547,0.,-0.707106781186547));
#210=DIRECTION('center_axis',(0.,0.,1.));
#211=DIRECTION('ref_axis',(1.,0.,0.));
#212=DIRECTION('center_axis',(1.,0.,0.));
#213=DIRECTION('ref_axis',(0.,0.,-1.));
#214=DIRECTION('center_axis',(-1.,0.,0.));
#215=DIRECTION('ref_axis',(0.,1.,0.));
#216=DIRECTION('center_axis',(1.,0.,0.));
#217=DIRECTION('ref_axis',(0.,1.,0.));
#218=DIRECTION('center_axis',(1.,0.,0.));
#219=DIRECTION('ref_axis',(0.,1.,0.));
#220=DIRECTION('',(-1.,0.,0.));
#221=DIRECTION('',(-1.,0.,0.));
#222=DIRECTION('center_axis',(1.,0.,0.));
#223=DIRECTION('ref_axis',(0.,0.,-1.));
#224=CARTESIAN_POINT('',(0.,0.,0.));
#225=CARTESIAN_POINT('Origin',(0.,0.,0.));
#226=CARTESIAN_POINT('',(0.,-23.9,0.));
#227=CARTESIAN_POINT('',(0.,23.9,0.));
#228=CARTESIAN_POINT('Origin',(0.,0.,0.));
#229=CARTESIAN_POINT('',(-23.9,-2.92690584996218E-15,23.9));
#230=CARTESIAN_POINT('Origin',(0.,0.,0.));
#231=CARTESIAN_POINT('',(-23.9,2.92690584996217E-15,28.5));
#232=CARTESIAN_POINT('',(-23.9,-2.92690584996217E-15,0.));
#233=CARTESIAN_POINT('Origin',(0.,0.,28.5));
#234=CARTESIAN_POINT('Origin',(0.,0.,0.));
#235=CARTESIAN_POINT('Origin',(0.,0.,0.));
#236=CARTESIAN_POINT('',(-62.,-23.9,-2.92690584996217E-15));
#237=CARTESIAN_POINT('Origin',(-62.,0.,0.));
#238=CARTESIAN_POINT('',(0.,-23.9,-2.92690584996217E-15));
#239=CARTESIAN_POINT('',(62.,-23.9,2.92690584996217E-15));
#240=CARTESIAN_POINT('',(0.,-23.9,-2.92690584996217E-15));
#241=CARTESIAN_POINT('Origin',(62.,0.,0.));
#242=CARTESIAN_POINT('Origin',(0.,0.,0.));
#243=CARTESIAN_POINT('',(-25.4,-3.11060286983428E-15,28.5));
#244=CARTESIAN_POINT('Origin',(0.,0.,28.5));
#245=CARTESIAN_POINT('',(-25.4,-3.11060286983428E-15,25.4));
#246=CARTESIAN_POINT('',(-25.4,-3.11060286983428E-15,0.));
#247=CARTESIAN_POINT('',(0.,-25.4,0.));
#248=CARTESIAN_POINT('Origin',(0.,0.,0.));
#249=CARTESIAN_POINT('',(0.,25.4,0.));
#250=CARTESIAN_POINT('Origin',(0.,0.,0.));
#251=CARTESIAN_POINT('Origin',(0.,0.,0.));
#252=CARTESIAN_POINT('Origin',(0.,0.,28.5));
#253=CARTESIAN_POINT('Origin',(-62.,0.,0.));
#254=CARTESIAN_POINT('',(-62.,-25.4,-3.11060286983428E-15));
#255=CARTESIAN_POINT('Origin',(-62.,0.,0.));
#256=CARTESIAN_POINT('Origin',(0.,0.,0.));
#257=CARTESIAN_POINT('',(62.,-25.4,-3.11060286983428E-15));
#258=CARTESIAN_POINT('Origin',(62.,0.,0.));
#259=CARTESIAN_POINT('',(0.,-25.4,-3.11060286983428E-15));
#260=CARTESIAN_POINT('',(0.,-25.4,-3.11060286983428E-15));
#261=CARTESIAN_POINT('Origin',(62.,0.,0.));
#262=UNCERTAINTY_MEASURE_WITH_UNIT(LENGTH_MEASURE(0.01),#266,
'DISTANCE_ACCURACY_VALUE',
'Maximum model space distance between geometric entities at asserted c
onnectivities');
#263=UNCERTAINTY_MEASURE_WITH_UNIT(LENGTH_MEASURE(0.01),#266,
'DISTANCE_ACCURACY_VALUE',
'Maximum model space distance between geometric entities at asserted c
onnectivities');
#264=(
GEOMETRIC_REPRESENTATION_CONTEXT(3)
GLOBAL_UNCERTAINTY_ASSIGNED_CONTEXT((#262))
GLOBAL_UNIT_ASSIGNED_CONTEXT((#266,#268,#269))
REPRESENTATION_CONTEXT('','3D')
);
#265=(
GEOMETRIC_REPRESENTATION_CONTEXT(3)
GLOBAL_UNCERTAINTY_ASSIGNED_CONTEXT((#263))
GLOBAL_UNIT_ASSIGNED_CONTEXT((#266,#268,#269))
REPRESENTATION_CONTEXT('','3D')
);
#266=(
LENGTH_UNIT()
NAMED_UNIT(*)
SI_UNIT(.MILLI.,.METRE.)
);
#267=(
LENGTH_UNIT()
NAMED_UNIT(*)
SI_UNIT(.CENTI.,.METRE.)
);
#268=(
NAMED_UNIT(*)
PLANE_ANGLE_UNIT()
SI_UNIT($,.RADIAN.)
);
#269=(
NAMED_UNIT(*)
SI_UNIT($,.STERADIAN.)
SOLID_ANGLE_UNIT()
);
#270=SHAPE_DEFINITION_REPRESENTATION(#271,#272);
#271=PRODUCT_DEFINITION_SHAPE('',$,#274);
#272=SHAPE_REPRESENTATION('',(#158),#264);
#273=PRODUCT_DEFINITION_CONTEXT('part definition',#278,'design');
#274=PRODUCT_DEFINITION('T-8 20','T-8 20',#275,#273);
#275=PRODUCT_DEFINITION_FORMATION('',$,#280);
#276=PRODUCT_RELATED_PRODUCT_CATEGORY('T-8 20','T-8 20',(#280));
#277=APPLICATION_PROTOCOL_DEFINITION('international standard',
'automotive_design',2009,#278);
#278=APPLICATION_CONTEXT(
'Core Data for Automotive Mechanical Design Process');
#279=PRODUCT_CONTEXT('part definition',#278,'mechanical');
#280=PRODUCT('T-8 20','T-8 20',$,(#279));
#281=PRESENTATION_STYLE_ASSIGNMENT((#282));
#282=SURFACE_STYLE_USAGE(.BOTH.,#285);
#283=SURFACE_STYLE_RENDERING_WITH_PROPERTIES($,#289,(#284));
#284=SURFACE_STYLE_TRANSPARENT(0.);
#285=SURFACE_SIDE_STYLE('',(#286,#283));
#286=SURFACE_STYLE_FILL_AREA(#287);
#287=FILL_AREA_STYLE('',(#288));
#288=FILL_AREA_STYLE_COLOUR('',#289);
#289=COLOUR_RGB('',0.749019607843137,0.749019607843137,0.749019607843137);
ENDSEC;
END-ISO-10303-21;
