ISO-10303-21;
HEADER;
/* Generated by software containing ST-Developer
 * from STEP Tools, Inc. (www.steptools.com) 
 */

FILE_DESCRIPTION(
/* description */ (''),
/* implementation_level */ '2;1');

FILE_NAME(
/* name */ 
'\\\\Tske00\\w\\Work\\TOSTE\\\X2\7D99624B\X0\\\02_\X2\6EB663A5\X0\\\\X2\6EB663A5752830C130FC30BA\X0\\\
T-8\\T-8 15\X\D710.stp',
/* time_stamp */ '2022-04-12T15:07:12+09:00',
/* author */ ('3dcad-eng'),
/* organization */ (''),
/* preprocessor_version */ 'ST-DEVELOPER v18.1',
/* originating_system */ 'Autodesk Inventor 2022',
/* authorisation */ '');

FILE_SCHEMA (('AUTOMOTIVE_DESIGN { 1 0 10303 214 3 1 1 }'));
ENDSEC;

DATA;
#10=MECHANICAL_DESIGN_GEOMETRIC_PRESENTATION_REPRESENTATION('',(#13),#323);
#11=SHAPE_REPRESENTATION_RELATIONSHIP('SRR','None',#330,#12);
#12=ADVANCED_BREP_SHAPE_REPRESENTATION('',(#14),#322);
#13=STYLED_ITEM('',(#339),#14);
#14=MANIFOLD_SOLID_BREP('\X2\30BD30EA30C330C9\X0\1',#123);
#15=PLANE('',#150);
#16=PLANE('',#151);
#17=PLANE('',#155);
#18=FACE_BOUND('',#32,.T.);
#19=FACE_BOUND('',#35,.T.);
#20=FACE_BOUND('',#37,.T.);
#21=FACE_BOUND('',#39,.T.);
#22=FACE_BOUND('',#41,.T.);
#23=FACE_OUTER_BOUND('',#30,.T.);
#24=FACE_OUTER_BOUND('',#31,.T.);
#25=FACE_OUTER_BOUND('',#33,.T.);
#26=FACE_OUTER_BOUND('',#34,.T.);
#27=FACE_OUTER_BOUND('',#36,.T.);
#28=FACE_OUTER_BOUND('',#38,.T.);
#29=FACE_OUTER_BOUND('',#40,.T.);
#30=EDGE_LOOP('',(#84,#85,#86,#87,#88));
#31=EDGE_LOOP('',(#89,#90,#91,#92));
#32=EDGE_LOOP('',(#93,#94));
#33=EDGE_LOOP('',(#95,#96,#97,#98,#99));
#34=EDGE_LOOP('',(#100));
#35=EDGE_LOOP('',(#101));
#36=EDGE_LOOP('',(#102));
#37=EDGE_LOOP('',(#103));
#38=EDGE_LOOP('',(#104,#105,#106,#107));
#39=EDGE_LOOP('',(#108,#109));
#40=EDGE_LOOP('',(#110));
#41=EDGE_LOOP('',(#111));
#42=CIRCLE('',#144,11.5);
#43=CIRCLE('',#146,17.85);
#44=CIRCLE('',#147,17.85);
#45=CIRCLE('',#149,12.7);
#46=CIRCLE('',#152,19.05);
#47=CIRCLE('',#154,19.05);
#48=LINE('',#245,#52);
#49=LINE('',#251,#53);
#50=LINE('',#257,#54);
#51=LINE('',#318,#55);
#52=VECTOR('',#160,11.5);
#53=VECTOR('',#167,17.85);
#54=VECTOR('',#174,12.7);
#55=VECTOR('',#185,19.05);
#56=B_SPLINE_CURVE_WITH_KNOTS('',3,(#192,#193,#194,#195,#196,#197,#198,
#199,#200,#201,#202,#203,#204,#205,#206,#207,#208,#209,#210,#211,#212,#213,
#214,#215,#216,#217,#218,#219,#220,#221,#222,#223,#224,#225,#226,#227,#228,
#229),.UNSPECIFIED.,.F.,.F.,(4,2,2,2,2,2,2,2,2,2,2,2,2,2,2,2,2,2,4),(0.,
0.225862237819554,0.451724475639108,0.903448951278215,1.35100990056067,
1.5747903752019,1.79857084984313,2.02235132448436,2.24613179912559,2.69369274840805,
3.14541722404716,3.37127946186671,3.59714169968627,3.82300393750582,4.04886617532537,
4.50059065096448,4.94815160024694,5.17193207488817,5.3957125495294),
 .UNSPECIFIED.);
#57=B_SPLINE_CURVE_WITH_KNOTS('',3,(#230,#231,#232,#233,#234,#235,#236,
#237,#238,#239,#240,#241,#242,#243),.UNSPECIFIED.,.F.,.F.,(4,2,2,2,2,2,
4),(5.3957125495294,5.61949302417063,5.84327349881186,6.29083444809432,
6.74255892373343,6.96842116155298,7.19428339937253),.UNSPECIFIED.);
#58=B_SPLINE_CURVE_WITH_KNOTS('',3,(#259,#260,#261,#262,#263,#264,#265,
#266,#267,#268,#269,#270,#271,#272),.UNSPECIFIED.,.F.,.F.,(4,2,2,2,2,2,
4),(0.,0.250524868498599,0.501049736997198,1.0020994739944,1.49763697028095,
1.74540571842422,1.9931744665675),.UNSPECIFIED.);
#59=B_SPLINE_CURVE_WITH_KNOTS('',3,(#273,#274,#275,#276,#277,#278,#279,
#280,#281,#282,#283,#284,#285,#286,#287,#288,#289,#290,#291,#292,#293,#294,
#295,#296,#297,#298,#299,#300,#301,#302,#303,#304,#305,#306,#307,#308,#309,
#310),.UNSPECIFIED.,.F.,.F.,(4,2,2,2,2,2,2,2,2,2,2,2,2,2,2,2,2,2,4),(1.9931744665675,
2.24094321471077,2.48871196285405,2.9842494591406,3.4852991961378,3.73582406463639,
3.98634893313499,4.23687380163359,4.48739867013219,4.98844840712939,5.48398590341594,
5.73175465155921,5.97952339970249,6.22729214784576,6.47506089598904,6.97059839227559,
7.47164812927279,7.72217299777139,7.97269786626999),.UNSPECIFIED.);
#60=VERTEX_POINT('',#190);
#61=VERTEX_POINT('',#191);
#62=VERTEX_POINT('',#244);
#63=VERTEX_POINT('',#248);
#64=VERTEX_POINT('',#250);
#65=VERTEX_POINT('',#254);
#66=VERTEX_POINT('',#256);
#67=VERTEX_POINT('',#258);
#68=VERTEX_POINT('',#313);
#69=VERTEX_POINT('',#316);
#70=EDGE_CURVE('',#60,#61,#56,.T.);
#71=EDGE_CURVE('',#61,#60,#57,.T.);
#72=EDGE_CURVE('',#61,#62,#48,.T.);
#73=EDGE_CURVE('',#62,#62,#42,.T.);
#74=EDGE_CURVE('',#63,#63,#43,.T.);
#75=EDGE_CURVE('',#63,#64,#49,.T.);
#76=EDGE_CURVE('',#64,#64,#44,.T.);
#77=EDGE_CURVE('',#65,#65,#45,.T.);
#78=EDGE_CURVE('',#65,#66,#50,.T.);
#79=EDGE_CURVE('',#67,#66,#58,.T.);
#80=EDGE_CURVE('',#66,#67,#59,.T.);
#81=EDGE_CURVE('',#68,#68,#46,.T.);
#82=EDGE_CURVE('',#69,#69,#47,.T.);
#83=EDGE_CURVE('',#69,#68,#51,.T.);
#84=ORIENTED_EDGE('',*,*,#70,.F.);
#85=ORIENTED_EDGE('',*,*,#71,.F.);
#86=ORIENTED_EDGE('',*,*,#72,.T.);
#87=ORIENTED_EDGE('',*,*,#73,.F.);
#88=ORIENTED_EDGE('',*,*,#72,.F.);
#89=ORIENTED_EDGE('',*,*,#74,.F.);
#90=ORIENTED_EDGE('',*,*,#75,.T.);
#91=ORIENTED_EDGE('',*,*,#76,.F.);
#92=ORIENTED_EDGE('',*,*,#75,.F.);
#93=ORIENTED_EDGE('',*,*,#70,.T.);
#94=ORIENTED_EDGE('',*,*,#71,.T.);
#95=ORIENTED_EDGE('',*,*,#77,.F.);
#96=ORIENTED_EDGE('',*,*,#78,.T.);
#97=ORIENTED_EDGE('',*,*,#79,.F.);
#98=ORIENTED_EDGE('',*,*,#80,.F.);
#99=ORIENTED_EDGE('',*,*,#78,.F.);
#100=ORIENTED_EDGE('',*,*,#77,.T.);
#101=ORIENTED_EDGE('',*,*,#73,.T.);
#102=ORIENTED_EDGE('',*,*,#81,.T.);
#103=ORIENTED_EDGE('',*,*,#74,.T.);
#104=ORIENTED_EDGE('',*,*,#82,.F.);
#105=ORIENTED_EDGE('',*,*,#83,.T.);
#106=ORIENTED_EDGE('',*,*,#81,.F.);
#107=ORIENTED_EDGE('',*,*,#83,.F.);
#108=ORIENTED_EDGE('',*,*,#79,.T.);
#109=ORIENTED_EDGE('',*,*,#80,.T.);
#110=ORIENTED_EDGE('',*,*,#82,.T.);
#111=ORIENTED_EDGE('',*,*,#76,.T.);
#112=CYLINDRICAL_SURFACE('',#143,11.5);
#113=CYLINDRICAL_SURFACE('',#145,17.85);
#114=CYLINDRICAL_SURFACE('',#148,12.7);
#115=CYLINDRICAL_SURFACE('',#153,19.05);
#116=ADVANCED_FACE('',(#23),#112,.F.);
#117=ADVANCED_FACE('',(#24,#18),#113,.F.);
#118=ADVANCED_FACE('',(#25),#114,.T.);
#119=ADVANCED_FACE('',(#26,#19),#15,.T.);
#120=ADVANCED_FACE('',(#27,#20),#16,.F.);
#121=ADVANCED_FACE('',(#28,#21),#115,.T.);
#122=ADVANCED_FACE('',(#29,#22),#17,.T.);
#123=CLOSED_SHELL('',(#116,#117,#118,#119,#120,#121,#122));
#124=DERIVED_UNIT_ELEMENT(#126,1.);
#125=DERIVED_UNIT_ELEMENT(#325,-3.);
#126=(
MASS_UNIT()
NAMED_UNIT(*)
SI_UNIT($,.GRAM.)
);
#127=DERIVED_UNIT((#124,#125));
#128=MEASURE_REPRESENTATION_ITEM('density measure',
POSITIVE_RATIO_MEASURE(1.),#127);
#129=PROPERTY_DEFINITION_REPRESENTATION(#134,#131);
#130=PROPERTY_DEFINITION_REPRESENTATION(#135,#132);
#131=REPRESENTATION('material name',(#133),#322);
#132=REPRESENTATION('density',(#128),#322);
#133=DESCRIPTIVE_REPRESENTATION_ITEM('\X2\4E00822C\X0\','\X2\4E00822C\X0\');
#134=PROPERTY_DEFINITION('material property','material name',#332);
#135=PROPERTY_DEFINITION('material property','density of part',#332);
#136=DATE_TIME_ROLE('creation_date');
#137=APPLIED_DATE_AND_TIME_ASSIGNMENT(#138,#136,(#332));
#138=DATE_AND_TIME(#139,#140);
#139=CALENDAR_DATE(2022,31,3);
#140=LOCAL_TIME(0,0,0.,#141);
#141=COORDINATED_UNIVERSAL_TIME_OFFSET(0,0,.BEHIND.);
#142=AXIS2_PLACEMENT_3D('placement',#188,#156,#157);
#143=AXIS2_PLACEMENT_3D('',#189,#158,#159);
#144=AXIS2_PLACEMENT_3D('',#246,#161,#162);
#145=AXIS2_PLACEMENT_3D('',#247,#163,#164);
#146=AXIS2_PLACEMENT_3D('',#249,#165,#166);
#147=AXIS2_PLACEMENT_3D('',#252,#168,#169);
#148=AXIS2_PLACEMENT_3D('',#253,#170,#171);
#149=AXIS2_PLACEMENT_3D('',#255,#172,#173);
#150=AXIS2_PLACEMENT_3D('',#311,#175,#176);
#151=AXIS2_PLACEMENT_3D('',#312,#177,#178);
#152=AXIS2_PLACEMENT_3D('',#314,#179,#180);
#153=AXIS2_PLACEMENT_3D('',#315,#181,#182);
#154=AXIS2_PLACEMENT_3D('',#317,#183,#184);
#155=AXIS2_PLACEMENT_3D('',#319,#186,#187);
#156=DIRECTION('axis',(0.,0.,1.));
#157=DIRECTION('refdir',(1.,0.,0.));
#158=DIRECTION('center_axis',(0.,0.,1.));
#159=DIRECTION('ref_axis',(1.,0.,0.));
#160=DIRECTION('',(0.,0.,1.));
#161=DIRECTION('center_axis',(0.,0.,-1.));
#162=DIRECTION('ref_axis',(1.,0.,0.));
#163=DIRECTION('center_axis',(1.,0.,0.));
#164=DIRECTION('ref_axis',(0.,1.,0.));
#165=DIRECTION('center_axis',(1.,0.,0.));
#166=DIRECTION('ref_axis',(0.,1.,0.));
#167=DIRECTION('',(1.,0.,0.));
#168=DIRECTION('center_axis',(-1.,0.,0.));
#169=DIRECTION('ref_axis',(0.,1.,0.));
#170=DIRECTION('center_axis',(0.,0.,1.));
#171=DIRECTION('ref_axis',(1.,0.,0.));
#172=DIRECTION('center_axis',(0.,0.,1.));
#173=DIRECTION('ref_axis',(1.,0.,0.));
#174=DIRECTION('',(0.,0.,-1.));
#175=DIRECTION('center_axis',(0.,0.,1.));
#176=DIRECTION('ref_axis',(1.,0.,0.));
#177=DIRECTION('center_axis',(1.,0.,0.));
#178=DIRECTION('ref_axis',(0.,0.,-1.));
#179=DIRECTION('center_axis',(-1.,0.,0.));
#180=DIRECTION('ref_axis',(0.,1.,0.));
#181=DIRECTION('center_axis',(1.,0.,0.));
#182=DIRECTION('ref_axis',(0.,1.,0.));
#183=DIRECTION('center_axis',(1.,0.,0.));
#184=DIRECTION('ref_axis',(0.,1.,0.));
#185=DIRECTION('',(-1.,0.,0.));
#186=DIRECTION('center_axis',(1.,0.,0.));
#187=DIRECTION('ref_axis',(0.,0.,-1.));
#188=CARTESIAN_POINT('',(0.,0.,0.));
#189=CARTESIAN_POINT('Origin',(0.,0.,0.));
#190=CARTESIAN_POINT('',(4.16333634234434E-16,-11.5,13.6518313789762));
#191=CARTESIAN_POINT('',(-11.5,1.2849535895914E-16,17.85));
#192=CARTESIAN_POINT('Ctrl Pts',(4.16333634234434E-16,-11.5,13.6518313789762));
#193=CARTESIAN_POINT('Ctrl Pts',(0.75287412606518,-11.5,13.6518313789762));
#194=CARTESIAN_POINT('Ctrl Pts',(1.5191401257231,-11.4250243631525,13.7160323374997));
#195=CARTESIAN_POINT('Ctrl Pts',(3.02378736891595,-11.1218559039366,13.9629884223023));
#196=CARTESIAN_POINT('Ctrl Pts',(3.76232020712233,-10.893838252517,14.1450343968372));
#197=CARTESIAN_POINT('Ctrl Pts',(5.86927145952034,-10.0062399683967,14.7999460042473));
#198=CARTESIAN_POINT('Ctrl Pts',(7.13053632079333,-9.13291964649726,15.3778142719846));
#199=CARTESIAN_POINT('Ctrl Pts',(9.12369170313545,-7.13976426415514,16.3978032011603));
#200=CARTESIAN_POINT('Ctrl Pts',(10.0032313775806,-5.87629226777192,16.9179350998977));
#201=CARTESIAN_POINT('Ctrl Pts',(10.8951461751762,-3.75927592541009,17.4648663246858));
#202=CARTESIAN_POINT('Ctrl Pts',(11.1237653759059,-3.01698823667972,17.6095728882071));
#203=CARTESIAN_POINT('Ctrl Pts',(11.4262529411322,-1.51033701132782,17.8021952983542));
#204=CARTESIAN_POINT('Ctrl Pts',(11.5,-0.745934915470765,17.85));
#205=CARTESIAN_POINT('Ctrl Pts',(11.5,0.745934915470765,17.85));
#206=CARTESIAN_POINT('Ctrl Pts',(11.4262529411322,1.51033701132782,17.8021952983542));
#207=CARTESIAN_POINT('Ctrl Pts',(11.1237653759059,3.01698823667972,17.6095728882071));
#208=CARTESIAN_POINT('Ctrl Pts',(10.8951461751762,3.75927592541009,17.4648663246858));
#209=CARTESIAN_POINT('Ctrl Pts',(10.0032313775806,5.87629226777192,16.9179350998977));
#210=CARTESIAN_POINT('Ctrl Pts',(9.12369170313545,7.13976426415514,16.3978032011603));
#211=CARTESIAN_POINT('Ctrl Pts',(7.13053632079333,9.13291964649726,15.3778142719846));
#212=CARTESIAN_POINT('Ctrl Pts',(5.86927145952034,10.0062399683967,14.7999460042473));
#213=CARTESIAN_POINT('Ctrl Pts',(3.76232020712233,10.893838252517,14.1450343968372));
#214=CARTESIAN_POINT('Ctrl Pts',(3.02378736891595,11.1218559039366,13.9629884223023));
#215=CARTESIAN_POINT('Ctrl Pts',(1.51914012572311,11.4250243631525,13.7160323374997));
#216=CARTESIAN_POINT('Ctrl Pts',(0.75287412606518,11.5,13.6518313789762));
#217=CARTESIAN_POINT('Ctrl Pts',(-0.75287412606518,11.5,13.6518313789762));
#218=CARTESIAN_POINT('Ctrl Pts',(-1.51914012572311,11.4250243631525,13.7160323374997));
#219=CARTESIAN_POINT('Ctrl Pts',(-3.02378736891595,11.1218559039366,13.9629884223023));
#220=CARTESIAN_POINT('Ctrl Pts',(-3.76232020712233,10.893838252517,14.1450343968372));
#221=CARTESIAN_POINT('Ctrl Pts',(-5.86927145952034,10.0062399683967,14.7999460042473));
#222=CARTESIAN_POINT('Ctrl Pts',(-7.13053632079333,9.13291964649726,15.3778142719846));
#223=CARTESIAN_POINT('Ctrl Pts',(-9.12369170313545,7.13976426415514,16.3978032011603));
#224=CARTESIAN_POINT('Ctrl Pts',(-10.0032313775806,5.87629226777192,16.9179350998977));
#225=CARTESIAN_POINT('Ctrl Pts',(-10.8951461751762,3.75927592541009,17.4648663246858));
#226=CARTESIAN_POINT('Ctrl Pts',(-11.1237653759059,3.01698823667972,17.6095728882071));
#227=CARTESIAN_POINT('Ctrl Pts',(-11.4262529411322,1.51033701132783,17.8021952983542));
#228=CARTESIAN_POINT('Ctrl Pts',(-11.5,0.745934915470768,17.85));
#229=CARTESIAN_POINT('Ctrl Pts',(-11.5,1.2490009027033E-15,17.85));
#230=CARTESIAN_POINT('Ctrl Pts',(-11.5,1.66533453693773E-15,17.85));
#231=CARTESIAN_POINT('Ctrl Pts',(-11.5,-0.745934915470765,17.85));
#232=CARTESIAN_POINT('Ctrl Pts',(-11.4262529411322,-1.51033701132782,17.8021952983542));
#233=CARTESIAN_POINT('Ctrl Pts',(-11.1237653759059,-3.01698823667972,17.6095728882071));
#234=CARTESIAN_POINT('Ctrl Pts',(-10.8951461751762,-3.75927592541009,17.4648663246858));
#235=CARTESIAN_POINT('Ctrl Pts',(-10.0032313775806,-5.87629226777192,16.9179350998977));
#236=CARTESIAN_POINT('Ctrl Pts',(-9.12369170313545,-7.13976426415514,16.3978032011603));
#237=CARTESIAN_POINT('Ctrl Pts',(-7.13053632079333,-9.13291964649726,15.3778142719846));
#238=CARTESIAN_POINT('Ctrl Pts',(-5.86927145952034,-10.0062399683967,14.7999460042473));
#239=CARTESIAN_POINT('Ctrl Pts',(-3.76232020712233,-10.893838252517,14.1450343968372));
#240=CARTESIAN_POINT('Ctrl Pts',(-3.02378736891595,-11.1218559039366,13.9629884223023));
#241=CARTESIAN_POINT('Ctrl Pts',(-1.5191401257231,-11.4250243631525,13.7160323374997));
#242=CARTESIAN_POINT('Ctrl Pts',(-0.752874126065179,-11.5,13.6518313789762));
#243=CARTESIAN_POINT('Ctrl Pts',(0.,-11.5,13.6518313789762));
#244=CARTESIAN_POINT('',(-11.5,1.40834381901946E-15,20.5));
#245=CARTESIAN_POINT('',(-11.5,-1.40834381901946E-15,0.));
#246=CARTESIAN_POINT('Origin',(0.,0.,20.5));
#247=CARTESIAN_POINT('Origin',(0.,0.,0.));
#248=CARTESIAN_POINT('',(-50.,-17.85,-2.18599453647803E-15));
#249=CARTESIAN_POINT('Origin',(-50.,0.,0.));
#250=CARTESIAN_POINT('',(50.,-17.85,2.18599453647803E-15));
#251=CARTESIAN_POINT('',(0.,-17.85,-2.18599453647803E-15));
#252=CARTESIAN_POINT('Origin',(50.,0.,0.));
#253=CARTESIAN_POINT('Origin',(0.,0.,0.));
#254=CARTESIAN_POINT('',(-12.7,-1.55530143491714E-15,20.5));
#255=CARTESIAN_POINT('Origin',(0.,0.,20.5));
#256=CARTESIAN_POINT('',(-12.7,-1.74909586400558E-15,19.05));
#257=CARTESIAN_POINT('',(-12.7,-1.55530143491714E-15,0.));
#258=CARTESIAN_POINT('',(0.,-12.7,14.1990316571237));
#259=CARTESIAN_POINT('Ctrl Pts',(0.,-12.7,14.1990316571237));
#260=CARTESIAN_POINT('Ctrl Pts',(-0.83508289499533,-12.7,14.1990316571237));
#261=CARTESIAN_POINT('Ctrl Pts',(-1.68318807206838,-12.6165164837802,14.2749869416554));
#262=CARTESIAN_POINT('Ctrl Pts',(-3.34619365454502,-12.2805781147469,14.5649971178408));
#263=CARTESIAN_POINT('Ctrl Pts',(-4.16129373101741,-12.0283251096007,14.7781400629076));
#264=CARTESIAN_POINT('Ctrl Pts',(-6.48546778212809,-11.0479292525405,15.5412918722146));
#265=CARTESIAN_POINT('Ctrl Pts',(-7.8755452889284,-10.0849669532099,16.2100280473561));
#266=CARTESIAN_POINT('Ctrl Pts',(-10.072813604804,-7.88769863733432,17.3845173651875));
#267=CARTESIAN_POINT('Ctrl Pts',(-11.0438077877344,-6.49497141673027,17.9811232657519));
#268=CARTESIAN_POINT('Ctrl Pts',(-12.0299415277407,-4.15759513494707,18.6082681014446));
#269=CARTESIAN_POINT('Ctrl Pts',(-12.2830405152795,-3.33747414137035,18.7741767880844));
#270=CARTESIAN_POINT('Ctrl Pts',(-12.6181383502135,-1.67164665061759,18.9951058221437));
#271=CARTESIAN_POINT('Ctrl Pts',(-12.7,-0.825895827144253,19.05));
#272=CARTESIAN_POINT('Ctrl Pts',(-12.7,-1.94289029309402E-15,19.05));
#273=CARTESIAN_POINT('Ctrl Pts',(-12.7,-1.94289029309402E-15,19.05));
#274=CARTESIAN_POINT('Ctrl Pts',(-12.7,0.825895827144249,19.05));
#275=CARTESIAN_POINT('Ctrl Pts',(-12.6181383502135,1.67164665061759,18.9951058221437));
#276=CARTESIAN_POINT('Ctrl Pts',(-12.2830405152795,3.33747414137035,18.7741767880844));
#277=CARTESIAN_POINT('Ctrl Pts',(-12.0299415277407,4.15759513494706,18.6082681014446));
#278=CARTESIAN_POINT('Ctrl Pts',(-11.0438077877344,6.49497141673027,17.9811232657519));
#279=CARTESIAN_POINT('Ctrl Pts',(-10.072813604804,7.88769863733432,17.3845173651875));
#280=CARTESIAN_POINT('Ctrl Pts',(-7.8755452889284,10.0849669532099,16.2100280473561));
#281=CARTESIAN_POINT('Ctrl Pts',(-6.48546778212809,11.0479292525405,15.5412918722146));
#282=CARTESIAN_POINT('Ctrl Pts',(-4.16129373101741,12.0283251096007,14.7781400629076));
#283=CARTESIAN_POINT('Ctrl Pts',(-3.34619365454502,12.2805781147469,14.5649971178408));
#284=CARTESIAN_POINT('Ctrl Pts',(-1.68318807206839,12.6165164837802,14.2749869416554));
#285=CARTESIAN_POINT('Ctrl Pts',(-0.835082894995331,12.7,14.1990316571237));
#286=CARTESIAN_POINT('Ctrl Pts',(0.835082894995331,12.7,14.1990316571237));
#287=CARTESIAN_POINT('Ctrl Pts',(1.68318807206839,12.6165164837802,14.2749869416554));
#288=CARTESIAN_POINT('Ctrl Pts',(3.34619365454502,12.2805781147469,14.5649971178408));
#289=CARTESIAN_POINT('Ctrl Pts',(4.16129373101741,12.0283251096007,14.7781400629076));
#290=CARTESIAN_POINT('Ctrl Pts',(6.48546778212809,11.0479292525405,15.5412918722146));
#291=CARTESIAN_POINT('Ctrl Pts',(7.8755452889284,10.0849669532099,16.2100280473561));
#292=CARTESIAN_POINT('Ctrl Pts',(10.072813604804,7.88769863733432,17.3845173651875));
#293=CARTESIAN_POINT('Ctrl Pts',(11.0438077877344,6.49497141673027,17.9811232657519));
#294=CARTESIAN_POINT('Ctrl Pts',(12.0299415277407,4.15759513494707,18.6082681014446));
#295=CARTESIAN_POINT('Ctrl Pts',(12.2830405152795,3.33747414137035,18.7741767880844));
#296=CARTESIAN_POINT('Ctrl Pts',(12.6181383502135,1.67164665061759,18.9951058221437));
#297=CARTESIAN_POINT('Ctrl Pts',(12.7,0.825895827144253,19.05));
#298=CARTESIAN_POINT('Ctrl Pts',(12.7,-0.825895827144247,19.05));
#299=CARTESIAN_POINT('Ctrl Pts',(12.6181383502135,-1.67164665061759,18.9951058221437));
#300=CARTESIAN_POINT('Ctrl Pts',(12.2830405152795,-3.33747414137034,18.7741767880844));
#301=CARTESIAN_POINT('Ctrl Pts',(12.0299415277407,-4.15759513494706,18.6082681014446));
#302=CARTESIAN_POINT('Ctrl Pts',(11.0438077877344,-6.49497141673026,17.9811232657519));
#303=CARTESIAN_POINT('Ctrl Pts',(10.072813604804,-7.88769863733431,17.3845173651875));
#304=CARTESIAN_POINT('Ctrl Pts',(7.8755452889284,-10.0849669532099,16.2100280473561));
#305=CARTESIAN_POINT('Ctrl Pts',(6.48546778212809,-11.0479292525405,15.5412918722146));
#306=CARTESIAN_POINT('Ctrl Pts',(4.1612937310174,-12.0283251096007,14.7781400629076));
#307=CARTESIAN_POINT('Ctrl Pts',(3.34619365454501,-12.2805781147469,14.5649971178408));
#308=CARTESIAN_POINT('Ctrl Pts',(1.68318807206838,-12.6165164837802,14.2749869416554));
#309=CARTESIAN_POINT('Ctrl Pts',(0.835082894995334,-12.7,14.1990316571237));
#310=CARTESIAN_POINT('Ctrl Pts',(4.16333634234434E-15,-12.7,14.1990316571237));
#311=CARTESIAN_POINT('Origin',(0.,0.,20.5));
#312=CARTESIAN_POINT('Origin',(-50.,0.,0.));
#313=CARTESIAN_POINT('',(-50.,-19.05,-2.33295215237571E-15));
#314=CARTESIAN_POINT('Origin',(-50.,0.,0.));
#315=CARTESIAN_POINT('Origin',(0.,0.,0.));
#316=CARTESIAN_POINT('',(50.,-19.05,-2.33295215237571E-15));
#317=CARTESIAN_POINT('Origin',(50.,0.,0.));
#318=CARTESIAN_POINT('',(0.,-19.05,-2.33295215237571E-15));
#319=CARTESIAN_POINT('Origin',(50.,0.,0.));
#320=UNCERTAINTY_MEASURE_WITH_UNIT(LENGTH_MEASURE(0.01),#324,
'DISTANCE_ACCURACY_VALUE',
'Maximum model space distance between geometric entities at asserted c
onnectivities');
#321=UNCERTAINTY_MEASURE_WITH_UNIT(LENGTH_MEASURE(0.01),#324,
'DISTANCE_ACCURACY_VALUE',
'Maximum model space distance between geometric entities at asserted c
onnectivities');
#322=(
GEOMETRIC_REPRESENTATION_CONTEXT(3)
GLOBAL_UNCERTAINTY_ASSIGNED_CONTEXT((#320))
GLOBAL_UNIT_ASSIGNED_CONTEXT((#324,#326,#327))
REPRESENTATION_CONTEXT('','3D')
);
#323=(
GEOMETRIC_REPRESENTATION_CONTEXT(3)
GLOBAL_UNCERTAINTY_ASSIGNED_CONTEXT((#321))
GLOBAL_UNIT_ASSIGNED_CONTEXT((#324,#326,#327))
REPRESENTATION_CONTEXT('','3D')
);
#324=(
LENGTH_UNIT()
NAMED_UNIT(*)
SI_UNIT(.MILLI.,.METRE.)
);
#325=(
LENGTH_UNIT()
NAMED_UNIT(*)
SI_UNIT(.CENTI.,.METRE.)
);
#326=(
NAMED_UNIT(*)
PLANE_ANGLE_UNIT()
SI_UNIT($,.RADIAN.)
);
#327=(
NAMED_UNIT(*)
SI_UNIT($,.STERADIAN.)
SOLID_ANGLE_UNIT()
);
#328=SHAPE_DEFINITION_REPRESENTATION(#329,#330);
#329=PRODUCT_DEFINITION_SHAPE('',$,#332);
#330=SHAPE_REPRESENTATION('',(#142),#322);
#331=PRODUCT_DEFINITION_CONTEXT('part definition',#336,'design');
#332=PRODUCT_DEFINITION('T-8 15\X\D710','T-8 15\X\D710',#333,#331);
#333=PRODUCT_DEFINITION_FORMATION('',$,#338);
#334=PRODUCT_RELATED_PRODUCT_CATEGORY('T-8 15\X\D710','T-8 15\X\D710',(#338));
#335=APPLICATION_PROTOCOL_DEFINITION('international standard',
'automotive_design',2009,#336);
#336=APPLICATION_CONTEXT(
'Core Data for Automotive Mechanical Design Process');
#337=PRODUCT_CONTEXT('part definition',#336,'mechanical');
#338=PRODUCT('T-8 15\X\D710','T-8 15\X\D710',$,(#337));
#339=PRESENTATION_STYLE_ASSIGNMENT((#340));
#340=SURFACE_STYLE_USAGE(.BOTH.,#343);
#341=SURFACE_STYLE_RENDERING_WITH_PROPERTIES($,#347,(#342));
#342=SURFACE_STYLE_TRANSPARENT(0.);
#343=SURFACE_SIDE_STYLE('',(#344,#341));
#344=SURFACE_STYLE_FILL_AREA(#345);
#345=FILL_AREA_STYLE('',(#346));
#346=FILL_AREA_STYLE_COLOUR('',#347);
#347=COLOUR_RGB('',0.749019607843137,0.749019607843137,0.749019607843137);
ENDSEC;
END-ISO-10303-21;
