ISO-10303-21;
HEADER;
/* Generated by software containing ST-Developer
 * from STEP Tools, Inc. (www.steptools.com) 
 */

FILE_DESCRIPTION(
/* description */ (''),
/* implementation_level */ '2;1');

FILE_NAME(
/* name */ 
'\\\\Tske00\\w\\Work\\TOSTE\\\X2\7D99624B\X0\\\02_\X2\6EB663A5\X0\\\\X2\6EB663A5752830C130FC30BA\X0\\\
T-8\\T-8 15\X\D704.stp',
/* time_stamp */ '2022-04-28T09:31:49+09:00',
/* author */ ('3dcad-eng'),
/* organization */ (''),
/* preprocessor_version */ 'ST-DEVELOPER v18.1',
/* originating_system */ 'Autodesk Inventor 2022',
/* authorisation */ '');

FILE_SCHEMA (('AUTOMOTIVE_DESIGN { 1 0 10303 214 3 1 1 }'));
ENDSEC;

DATA;
#10=MECHANICAL_DESIGN_GEOMETRIC_PRESENTATION_REPRESENTATION('',(#13),#299);
#11=SHAPE_REPRESENTATION_RELATIONSHIP('SRR','None',#306,#12);
#12=ADVANCED_BREP_SHAPE_REPRESENTATION('',(#14),#298);
#13=STYLED_ITEM('',(#315),#14);
#14=MANIFOLD_SOLID_BREP('\X2\30BD30EA30C330C9\X0\1',#123);
#15=PLANE('',#150);
#16=PLANE('',#151);
#17=PLANE('',#155);
#18=FACE_BOUND('',#32,.T.);
#19=FACE_BOUND('',#35,.T.);
#20=FACE_BOUND('',#37,.T.);
#21=FACE_BOUND('',#39,.T.);
#22=FACE_BOUND('',#41,.T.);
#23=FACE_OUTER_BOUND('',#30,.T.);
#24=FACE_OUTER_BOUND('',#31,.T.);
#25=FACE_OUTER_BOUND('',#33,.T.);
#26=FACE_OUTER_BOUND('',#34,.T.);
#27=FACE_OUTER_BOUND('',#36,.T.);
#28=FACE_OUTER_BOUND('',#38,.T.);
#29=FACE_OUTER_BOUND('',#40,.T.);
#30=EDGE_LOOP('',(#84,#85,#86,#87,#88));
#31=EDGE_LOOP('',(#89,#90,#91,#92));
#32=EDGE_LOOP('',(#93,#94));
#33=EDGE_LOOP('',(#95,#96,#97,#98,#99));
#34=EDGE_LOOP('',(#100));
#35=EDGE_LOOP('',(#101));
#36=EDGE_LOOP('',(#102));
#37=EDGE_LOOP('',(#103));
#38=EDGE_LOOP('',(#104,#105,#106,#107));
#39=EDGE_LOOP('',(#108,#109));
#40=EDGE_LOOP('',(#110));
#41=EDGE_LOOP('',(#111));
#42=CIRCLE('',#144,9.2);
#43=CIRCLE('',#146,17.85);
#44=CIRCLE('',#147,17.85);
#45=CIRCLE('',#149,10.85);
#46=CIRCLE('',#152,19.05);
#47=CIRCLE('',#154,19.05);
#48=LINE('',#229,#52);
#49=LINE('',#235,#53);
#50=LINE('',#241,#54);
#51=LINE('',#294,#55);
#52=VECTOR('',#160,9.2);
#53=VECTOR('',#167,17.85);
#54=VECTOR('',#174,10.85);
#55=VECTOR('',#185,19.05);
#56=B_SPLINE_CURVE_WITH_KNOTS('',3,(#192,#193,#194,#195,#196,#197,#198,
#199,#200,#201,#202,#203,#204,#205,#206,#207,#208,#209,#210,#211,#212,#213,
#214,#215,#216,#217),.UNSPECIFIED.,.F.,.F.,(4,2,2,2,2,2,2,2,2,2,2,2,4),
(0.,0.354711812645274,0.709423625290549,1.06302387454292,1.41662412379528,
1.77022437304765,2.12382462230002,2.47853643494529,2.83324824759057,3.18796006023584,
3.54267187288112,3.89627212213348,4.24987237138585),.UNSPECIFIED.);
#57=B_SPLINE_CURVE_WITH_KNOTS('',3,(#218,#219,#220,#221,#222,#223,#224,
#225,#226,#227),.UNSPECIFIED.,.F.,.F.,(4,2,2,2,4),(4.24987237138585,4.60347262063822,
4.95707286989059,5.31178468253586,5.66649649518114),.UNSPECIFIED.);
#58=B_SPLINE_CURVE_WITH_KNOTS('',3,(#243,#244,#245,#246,#247,#248,#249,
#250,#251,#252,#253,#254),.UNSPECIFIED.,.F.,.F.,(4,2,2,2,2,4),(0.,0.210567717628221,
0.421135435256443,0.842270870512886,1.26129581228606,1.68032075405923),
 .UNSPECIFIED.);
#59=B_SPLINE_CURVE_WITH_KNOTS('',3,(#255,#256,#257,#258,#259,#260,#261,
#262,#263,#264,#265,#266,#267,#268,#269,#270,#271,#272,#273,#274,#275,#276,
#277,#278,#279,#280,#281,#282,#283,#284,#285,#286),.UNSPECIFIED.,.F.,.F.,
(4,2,2,2,2,2,2,2,2,2,2,2,2,2,2,4),(1.68032075405923,2.09934569583241,2.51837063760558,
2.93950607286202,3.15007379049025,3.36064150811847,3.57120922574669,3.78177694337491,
4.20291237863135,4.62193732040453,5.0409622621777,5.45998720395088,5.87901214572405,
6.30014758098049,6.51071529860871,6.72128301623694),.UNSPECIFIED.);
#60=VERTEX_POINT('',#190);
#61=VERTEX_POINT('',#191);
#62=VERTEX_POINT('',#228);
#63=VERTEX_POINT('',#232);
#64=VERTEX_POINT('',#234);
#65=VERTEX_POINT('',#238);
#66=VERTEX_POINT('',#240);
#67=VERTEX_POINT('',#242);
#68=VERTEX_POINT('',#289);
#69=VERTEX_POINT('',#292);
#70=EDGE_CURVE('',#60,#61,#56,.T.);
#71=EDGE_CURVE('',#61,#60,#57,.T.);
#72=EDGE_CURVE('',#61,#62,#48,.T.);
#73=EDGE_CURVE('',#62,#62,#42,.T.);
#74=EDGE_CURVE('',#63,#63,#43,.T.);
#75=EDGE_CURVE('',#63,#64,#49,.T.);
#76=EDGE_CURVE('',#64,#64,#44,.T.);
#77=EDGE_CURVE('',#65,#65,#45,.T.);
#78=EDGE_CURVE('',#65,#66,#50,.T.);
#79=EDGE_CURVE('',#67,#66,#58,.T.);
#80=EDGE_CURVE('',#66,#67,#59,.T.);
#81=EDGE_CURVE('',#68,#68,#46,.T.);
#82=EDGE_CURVE('',#69,#69,#47,.T.);
#83=EDGE_CURVE('',#69,#68,#51,.T.);
#84=ORIENTED_EDGE('',*,*,#70,.F.);
#85=ORIENTED_EDGE('',*,*,#71,.F.);
#86=ORIENTED_EDGE('',*,*,#72,.T.);
#87=ORIENTED_EDGE('',*,*,#73,.F.);
#88=ORIENTED_EDGE('',*,*,#72,.F.);
#89=ORIENTED_EDGE('',*,*,#74,.F.);
#90=ORIENTED_EDGE('',*,*,#75,.T.);
#91=ORIENTED_EDGE('',*,*,#76,.F.);
#92=ORIENTED_EDGE('',*,*,#75,.F.);
#93=ORIENTED_EDGE('',*,*,#70,.T.);
#94=ORIENTED_EDGE('',*,*,#71,.T.);
#95=ORIENTED_EDGE('',*,*,#77,.F.);
#96=ORIENTED_EDGE('',*,*,#78,.T.);
#97=ORIENTED_EDGE('',*,*,#79,.F.);
#98=ORIENTED_EDGE('',*,*,#80,.F.);
#99=ORIENTED_EDGE('',*,*,#78,.F.);
#100=ORIENTED_EDGE('',*,*,#77,.T.);
#101=ORIENTED_EDGE('',*,*,#73,.T.);
#102=ORIENTED_EDGE('',*,*,#81,.T.);
#103=ORIENTED_EDGE('',*,*,#74,.T.);
#104=ORIENTED_EDGE('',*,*,#82,.F.);
#105=ORIENTED_EDGE('',*,*,#83,.T.);
#106=ORIENTED_EDGE('',*,*,#81,.F.);
#107=ORIENTED_EDGE('',*,*,#83,.F.);
#108=ORIENTED_EDGE('',*,*,#79,.T.);
#109=ORIENTED_EDGE('',*,*,#80,.T.);
#110=ORIENTED_EDGE('',*,*,#82,.T.);
#111=ORIENTED_EDGE('',*,*,#76,.T.);
#112=CYLINDRICAL_SURFACE('',#143,9.2);
#113=CYLINDRICAL_SURFACE('',#145,17.85);
#114=CYLINDRICAL_SURFACE('',#148,10.85);
#115=CYLINDRICAL_SURFACE('',#153,19.05);
#116=ADVANCED_FACE('',(#23),#112,.F.);
#117=ADVANCED_FACE('',(#24,#18),#113,.F.);
#118=ADVANCED_FACE('',(#25),#114,.T.);
#119=ADVANCED_FACE('',(#26,#19),#15,.T.);
#120=ADVANCED_FACE('',(#27,#20),#16,.F.);
#121=ADVANCED_FACE('',(#28,#21),#115,.T.);
#122=ADVANCED_FACE('',(#29,#22),#17,.T.);
#123=CLOSED_SHELL('',(#116,#117,#118,#119,#120,#121,#122));
#124=DERIVED_UNIT_ELEMENT(#126,1.);
#125=DERIVED_UNIT_ELEMENT(#301,-3.);
#126=(
MASS_UNIT()
NAMED_UNIT(*)
SI_UNIT($,.GRAM.)
);
#127=DERIVED_UNIT((#124,#125));
#128=MEASURE_REPRESENTATION_ITEM('density measure',
POSITIVE_RATIO_MEASURE(1.),#127);
#129=PROPERTY_DEFINITION_REPRESENTATION(#134,#131);
#130=PROPERTY_DEFINITION_REPRESENTATION(#135,#132);
#131=REPRESENTATION('material name',(#133),#298);
#132=REPRESENTATION('density',(#128),#298);
#133=DESCRIPTIVE_REPRESENTATION_ITEM('\X2\4E00822C\X0\','\X2\4E00822C\X0\');
#134=PROPERTY_DEFINITION('material property','material name',#308);
#135=PROPERTY_DEFINITION('material property','density of part',#308);
#136=DATE_TIME_ROLE('creation_date');
#137=APPLIED_DATE_AND_TIME_ASSIGNMENT(#138,#136,(#308));
#138=DATE_AND_TIME(#139,#140);
#139=CALENDAR_DATE(2022,31,3);
#140=LOCAL_TIME(0,0,0.,#141);
#141=COORDINATED_UNIVERSAL_TIME_OFFSET(0,0,.BEHIND.);
#142=AXIS2_PLACEMENT_3D('placement',#188,#156,#157);
#143=AXIS2_PLACEMENT_3D('',#189,#158,#159);
#144=AXIS2_PLACEMENT_3D('',#230,#161,#162);
#145=AXIS2_PLACEMENT_3D('',#231,#163,#164);
#146=AXIS2_PLACEMENT_3D('',#233,#165,#166);
#147=AXIS2_PLACEMENT_3D('',#236,#168,#169);
#148=AXIS2_PLACEMENT_3D('',#237,#170,#171);
#149=AXIS2_PLACEMENT_3D('',#239,#172,#173);
#150=AXIS2_PLACEMENT_3D('',#287,#175,#176);
#151=AXIS2_PLACEMENT_3D('',#288,#177,#178);
#152=AXIS2_PLACEMENT_3D('',#290,#179,#180);
#153=AXIS2_PLACEMENT_3D('',#291,#181,#182);
#154=AXIS2_PLACEMENT_3D('',#293,#183,#184);
#155=AXIS2_PLACEMENT_3D('',#295,#186,#187);
#156=DIRECTION('axis',(0.,0.,1.));
#157=DIRECTION('refdir',(1.,0.,0.));
#158=DIRECTION('center_axis',(0.,0.,1.));
#159=DIRECTION('ref_axis',(1.,0.,0.));
#160=DIRECTION('',(0.,0.,1.));
#161=DIRECTION('center_axis',(0.,0.,-1.));
#162=DIRECTION('ref_axis',(1.,0.,0.));
#163=DIRECTION('center_axis',(1.,0.,0.));
#164=DIRECTION('ref_axis',(0.,1.,0.));
#165=DIRECTION('center_axis',(1.,0.,0.));
#166=DIRECTION('ref_axis',(0.,1.,0.));
#167=DIRECTION('',(1.,0.,0.));
#168=DIRECTION('center_axis',(-1.,0.,0.));
#169=DIRECTION('ref_axis',(0.,1.,0.));
#170=DIRECTION('center_axis',(0.,0.,1.));
#171=DIRECTION('ref_axis',(1.,0.,0.));
#172=DIRECTION('center_axis',(0.,0.,1.));
#173=DIRECTION('ref_axis',(1.,0.,0.));
#174=DIRECTION('',(0.,0.,-1.));
#175=DIRECTION('center_axis',(0.,0.,1.));
#176=DIRECTION('ref_axis',(1.,0.,0.));
#177=DIRECTION('center_axis',(1.,0.,0.));
#178=DIRECTION('ref_axis',(0.,0.,-1.));
#179=DIRECTION('center_axis',(-1.,0.,0.));
#180=DIRECTION('ref_axis',(0.,1.,0.));
#181=DIRECTION('center_axis',(1.,0.,0.));
#182=DIRECTION('ref_axis',(0.,1.,0.));
#183=DIRECTION('center_axis',(1.,0.,0.));
#184=DIRECTION('ref_axis',(0.,1.,0.));
#185=DIRECTION('',(-1.,0.,0.));
#186=DIRECTION('center_axis',(1.,0.,0.));
#187=DIRECTION('ref_axis',(0.,0.,-1.));
#188=CARTESIAN_POINT('',(0.,0.,0.));
#189=CARTESIAN_POINT('Origin',(0.,0.,0.));
#190=CARTESIAN_POINT('',(-4.16333634234434E-16,-9.2,15.2964865246893));
#191=CARTESIAN_POINT('',(-9.2,2.69329740861085E-16,17.85));
#192=CARTESIAN_POINT('Ctrl Pts',(-4.16333634234434E-16,-9.2,15.2964865246893));
#193=CARTESIAN_POINT('Ctrl Pts',(1.18237270881758,-9.2,15.2964865246893));
#194=CARTESIAN_POINT('Ctrl Pts',(2.42326557206151,-8.95905877604334,15.4481740555092));
#195=CARTESIAN_POINT('Ctrl Pts',(4.68055478462387,-8.01432439703648,15.9587402096754));
#196=CARTESIAN_POINT('Ctrl Pts',(5.6996038511952,-7.31116092263727,16.3069970300246));
#197=CARTESIAN_POINT('Ctrl Pts',(7.30863584765762,-5.70212892617485,16.9367135730864));
#198=CARTESIAN_POINT('Ctrl Pts',(8.01363984572237,-4.68224884120684,17.2635386935601));
#199=CARTESIAN_POINT('Ctrl Pts',(8.95988082891892,-2.42124296969346,17.7226071943835));
#200=CARTESIAN_POINT('Ctrl Pts',(9.2,-1.17866749750789,17.85));
#201=CARTESIAN_POINT('Ctrl Pts',(9.2,1.17866749750789,17.85));
#202=CARTESIAN_POINT('Ctrl Pts',(8.95988082891892,2.42124296969346,17.7226071943835));
#203=CARTESIAN_POINT('Ctrl Pts',(8.01363984572237,4.68224884120684,17.2635386935601));
#204=CARTESIAN_POINT('Ctrl Pts',(7.30863584765762,5.70212892617485,16.9367135730864));
#205=CARTESIAN_POINT('Ctrl Pts',(5.6996038511952,7.31116092263727,16.3069970300246));
#206=CARTESIAN_POINT('Ctrl Pts',(4.68055478462386,8.01432439703648,15.9587402096754));
#207=CARTESIAN_POINT('Ctrl Pts',(2.42326557206151,8.95905877604334,15.4481740555092));
#208=CARTESIAN_POINT('Ctrl Pts',(1.18237270881758,9.2,15.2964865246893));
#209=CARTESIAN_POINT('Ctrl Pts',(-1.18237270881758,9.2,15.2964865246893));
#210=CARTESIAN_POINT('Ctrl Pts',(-2.42326557206151,8.95905877604334,15.4481740555092));
#211=CARTESIAN_POINT('Ctrl Pts',(-4.68055478462386,8.01432439703648,15.9587402096754));
#212=CARTESIAN_POINT('Ctrl Pts',(-5.6996038511952,7.31116092263727,16.3069970300246));
#213=CARTESIAN_POINT('Ctrl Pts',(-7.30863584765762,5.70212892617485,16.9367135730864));
#214=CARTESIAN_POINT('Ctrl Pts',(-8.01363984572236,4.68224884120684,17.2635386935601));
#215=CARTESIAN_POINT('Ctrl Pts',(-8.95988082891892,2.42124296969346,17.7226071943835));
#216=CARTESIAN_POINT('Ctrl Pts',(-9.2,1.17866749750789,17.85));
#217=CARTESIAN_POINT('Ctrl Pts',(-9.2,2.22044604925031E-15,17.85));
#218=CARTESIAN_POINT('Ctrl Pts',(-9.2,1.38777878078145E-15,17.85));
#219=CARTESIAN_POINT('Ctrl Pts',(-9.2,-1.17866749750789,17.85));
#220=CARTESIAN_POINT('Ctrl Pts',(-8.95988082891892,-2.42124296969346,17.7226071943835));
#221=CARTESIAN_POINT('Ctrl Pts',(-8.01363984572237,-4.68224884120684,17.2635386935601));
#222=CARTESIAN_POINT('Ctrl Pts',(-7.30863584765762,-5.70212892617485,16.9367135730864));
#223=CARTESIAN_POINT('Ctrl Pts',(-5.6996038511952,-7.31116092263727,16.3069970300246));
#224=CARTESIAN_POINT('Ctrl Pts',(-4.68055478462387,-8.01432439703648,15.9587402096754));
#225=CARTESIAN_POINT('Ctrl Pts',(-2.42326557206151,-8.95905877604334,15.4481740555092));
#226=CARTESIAN_POINT('Ctrl Pts',(-1.18237270881758,-9.2,15.2964865246893));
#227=CARTESIAN_POINT('Ctrl Pts',(-2.63677968348475E-15,-9.2,15.2964865246893));
#228=CARTESIAN_POINT('',(-9.2,1.12667505521557E-15,21.3));
#229=CARTESIAN_POINT('',(-9.2,-1.12667505521557E-15,0.));
#230=CARTESIAN_POINT('Origin',(0.,0.,21.3));
#231=CARTESIAN_POINT('Origin',(0.,0.,0.));
#232=CARTESIAN_POINT('',(-50.,-17.85,-2.18599453647803E-15));
#233=CARTESIAN_POINT('Origin',(-50.,0.,0.));
#234=CARTESIAN_POINT('',(50.,-17.85,2.18599453647803E-15));
#235=CARTESIAN_POINT('',(0.,-17.85,-2.18599453647803E-15));
#236=CARTESIAN_POINT('Origin',(50.,0.,0.));
#237=CARTESIAN_POINT('Origin',(0.,0.,0.));
#238=CARTESIAN_POINT('',(-10.85,-1.32874177707488E-15,21.3));
#239=CARTESIAN_POINT('Origin',(0.,0.,21.3));
#240=CARTESIAN_POINT('',(-10.85,-9.41926644693728E-16,19.05));
#241=CARTESIAN_POINT('',(-10.85,-1.32874177707488E-15,0.));
#242=CARTESIAN_POINT('',(-1.38777878078145E-16,-10.85,15.6582246758692));
#243=CARTESIAN_POINT('Ctrl Pts',(-1.38777878078145E-16,-10.85,15.6582246758692));
#244=CARTESIAN_POINT('Ctrl Pts',(-0.701892392094072,-10.85,15.6582246758692));
#245=CARTESIAN_POINT('Ctrl Pts',(-1.42012734898839,-10.7808554462062,15.7068388692349));
#246=CARTESIAN_POINT('Ctrl Pts',(-2.83584069590735,-10.4976956323053,15.8974846324504));
#247=CARTESIAN_POINT('Ctrl Pts',(-3.53340180606739,-10.2838185472229,16.0391069052411));
#248=CARTESIAN_POINT('Ctrl Pts',(-5.52703817980067,-9.44731999232729,16.5553635932284));
#249=CARTESIAN_POINT('Ctrl Pts',(-6.72429662174737,-8.61992053000071,17.0197454233724));
#250=CARTESIAN_POINT('Ctrl Pts',(-8.61517063059761,-6.72904652115047,17.851721958888));
#251=CARTESIAN_POINT('Ctrl Pts',(-9.44593963581297,-5.53037766525301,18.2806948485898));
#252=CARTESIAN_POINT('Ctrl Pts',(-10.5641530094466,-2.86522787146296,18.8827792580093));
#253=CARTESIAN_POINT('Ctrl Pts',(-10.85,-1.39674980591058,19.05));
#254=CARTESIAN_POINT('Ctrl Pts',(-10.85,-5.55111512312578E-16,19.05));
#255=CARTESIAN_POINT('Ctrl Pts',(-10.85,-5.55111512312578E-16,19.05));
#256=CARTESIAN_POINT('Ctrl Pts',(-10.85,1.39674980591058,19.05));
#257=CARTESIAN_POINT('Ctrl Pts',(-10.5641530094466,2.86522787146296,18.8827792580093));
#258=CARTESIAN_POINT('Ctrl Pts',(-9.44593963581296,5.53037766525301,18.2806948485898));
#259=CARTESIAN_POINT('Ctrl Pts',(-8.61517063059761,6.72904652115047,17.851721958888));
#260=CARTESIAN_POINT('Ctrl Pts',(-6.72429662174737,8.61992053000071,17.0197454233724));
#261=CARTESIAN_POINT('Ctrl Pts',(-5.52703817980067,9.44731999232728,16.5553635932284));
#262=CARTESIAN_POINT('Ctrl Pts',(-3.5334018060674,10.2838185472229,16.0391069052411));
#263=CARTESIAN_POINT('Ctrl Pts',(-2.83584069590735,10.4976956323053,15.8974846324504));
#264=CARTESIAN_POINT('Ctrl Pts',(-1.42012734898839,10.7808554462062,15.7068388692349));
#265=CARTESIAN_POINT('Ctrl Pts',(-0.701892392094073,10.85,15.6582246758692));
#266=CARTESIAN_POINT('Ctrl Pts',(0.701892392094072,10.85,15.6582246758692));
#267=CARTESIAN_POINT('Ctrl Pts',(1.42012734898839,10.7808554462062,15.7068388692349));
#268=CARTESIAN_POINT('Ctrl Pts',(2.83584069590735,10.4976956323053,15.8974846324504));
#269=CARTESIAN_POINT('Ctrl Pts',(3.53340180606739,10.2838185472229,16.0391069052411));
#270=CARTESIAN_POINT('Ctrl Pts',(5.52703817980066,9.44731999232729,16.5553635932284));
#271=CARTESIAN_POINT('Ctrl Pts',(6.72429662174736,8.61992053000072,17.0197454233724));
#272=CARTESIAN_POINT('Ctrl Pts',(8.61517063059761,6.72904652115047,17.851721958888));
#273=CARTESIAN_POINT('Ctrl Pts',(9.44593963581296,5.53037766525302,18.2806948485898));
#274=CARTESIAN_POINT('Ctrl Pts',(10.5641530094466,2.86522787146297,18.8827792580093));
#275=CARTESIAN_POINT('Ctrl Pts',(10.85,1.39674980591058,19.05));
#276=CARTESIAN_POINT('Ctrl Pts',(10.85,-1.39674980591058,19.05));
#277=CARTESIAN_POINT('Ctrl Pts',(10.5641530094466,-2.86522787146296,18.8827792580093));
#278=CARTESIAN_POINT('Ctrl Pts',(9.44593963581297,-5.53037766525301,18.2806948485898));
#279=CARTESIAN_POINT('Ctrl Pts',(8.61517063059761,-6.72904652115047,17.851721958888));
#280=CARTESIAN_POINT('Ctrl Pts',(6.72429662174737,-8.61992053000071,17.0197454233724));
#281=CARTESIAN_POINT('Ctrl Pts',(5.52703817980067,-9.44731999232728,16.5553635932284));
#282=CARTESIAN_POINT('Ctrl Pts',(3.53340180606739,-10.2838185472229,16.0391069052412));
#283=CARTESIAN_POINT('Ctrl Pts',(2.83584069590735,-10.4976956323053,15.8974846324504));
#284=CARTESIAN_POINT('Ctrl Pts',(1.42012734898839,-10.7808554462062,15.7068388692349));
#285=CARTESIAN_POINT('Ctrl Pts',(0.701892392094073,-10.85,15.6582246758692));
#286=CARTESIAN_POINT('Ctrl Pts',(0.,-10.85,15.6582246758692));
#287=CARTESIAN_POINT('Origin',(0.,0.,21.3));
#288=CARTESIAN_POINT('Origin',(-50.,0.,0.));
#289=CARTESIAN_POINT('',(-50.,-19.05,-2.33295215237571E-15));
#290=CARTESIAN_POINT('Origin',(-50.,0.,0.));
#291=CARTESIAN_POINT('Origin',(0.,0.,0.));
#292=CARTESIAN_POINT('',(50.,-19.05,-2.33295215237571E-15));
#293=CARTESIAN_POINT('Origin',(50.,0.,0.));
#294=CARTESIAN_POINT('',(0.,-19.05,-2.33295215237571E-15));
#295=CARTESIAN_POINT('Origin',(50.,0.,0.));
#296=UNCERTAINTY_MEASURE_WITH_UNIT(LENGTH_MEASURE(0.01),#300,
'DISTANCE_ACCURACY_VALUE',
'Maximum model space distance between geometric entities at asserted c
onnectivities');
#297=UNCERTAINTY_MEASURE_WITH_UNIT(LENGTH_MEASURE(0.01),#300,
'DISTANCE_ACCURACY_VALUE',
'Maximum model space distance between geometric entities at asserted c
onnectivities');
#298=(
GEOMETRIC_REPRESENTATION_CONTEXT(3)
GLOBAL_UNCERTAINTY_ASSIGNED_CONTEXT((#296))
GLOBAL_UNIT_ASSIGNED_CONTEXT((#300,#302,#303))
REPRESENTATION_CONTEXT('','3D')
);
#299=(
GEOMETRIC_REPRESENTATION_CONTEXT(3)
GLOBAL_UNCERTAINTY_ASSIGNED_CONTEXT((#297))
GLOBAL_UNIT_ASSIGNED_CONTEXT((#300,#302,#303))
REPRESENTATION_CONTEXT('','3D')
);
#300=(
LENGTH_UNIT()
NAMED_UNIT(*)
SI_UNIT(.MILLI.,.METRE.)
);
#301=(
LENGTH_UNIT()
NAMED_UNIT(*)
SI_UNIT(.CENTI.,.METRE.)
);
#302=(
NAMED_UNIT(*)
PLANE_ANGLE_UNIT()
SI_UNIT($,.RADIAN.)
);
#303=(
NAMED_UNIT(*)
SI_UNIT($,.STERADIAN.)
SOLID_ANGLE_UNIT()
);
#304=SHAPE_DEFINITION_REPRESENTATION(#305,#306);
#305=PRODUCT_DEFINITION_SHAPE('',$,#308);
#306=SHAPE_REPRESENTATION('',(#142),#298);
#307=PRODUCT_DEFINITION_CONTEXT('part definition',#312,'design');
#308=PRODUCT_DEFINITION('T-8 15\X\D704','T-8 15\X\D704',#309,#307);
#309=PRODUCT_DEFINITION_FORMATION('',$,#314);
#310=PRODUCT_RELATED_PRODUCT_CATEGORY('T-8 15\X\D704','T-8 15\X\D704',(#314));
#311=APPLICATION_PROTOCOL_DEFINITION('international standard',
'automotive_design',2009,#312);
#312=APPLICATION_CONTEXT(
'Core Data for Automotive Mechanical Design Process');
#313=PRODUCT_CONTEXT('part definition',#312,'mechanical');
#314=PRODUCT('T-8 15\X\D704','T-8 15\X\D704',$,(#313));
#315=PRESENTATION_STYLE_ASSIGNMENT((#316));
#316=SURFACE_STYLE_USAGE(.BOTH.,#319);
#317=SURFACE_STYLE_RENDERING_WITH_PROPERTIES($,#323,(#318));
#318=SURFACE_STYLE_TRANSPARENT(0.);
#319=SURFACE_SIDE_STYLE('',(#320,#317));
#320=SURFACE_STYLE_FILL_AREA(#321);
#321=FILL_AREA_STYLE('',(#322));
#322=FILL_AREA_STYLE_COLOUR('',#323);
#323=COLOUR_RGB('',0.749019607843137,0.749019607843137,0.749019607843137);
ENDSEC;
END-ISO-10303-21;
