ISO-10303-21;
HEADER;
/* Generated by software containing ST-Developer
 * from STEP Tools, Inc. (www.steptools.com) 
 */

FILE_DESCRIPTION(
/* description */ (''),
/* implementation_level */ '2;1');

FILE_NAME(
/* name */ 
'\\\\Tske00\\w\\Work\\TOSTE\\\X2\7D99624B\X0\\\02_\X2\6EB663A5\X0\\\\X2\6EB663A5752830C130FC30BA\X0\\\
T-8\\T-8 10\X\D704.stp',
/* time_stamp */ '2022-04-28T09:31:47+09:00',
/* author */ ('3dcad-eng'),
/* organization */ (''),
/* preprocessor_version */ 'ST-DEVELOPER v18.1',
/* originating_system */ 'Autodesk Inventor 2022',
/* authorisation */ '');

FILE_SCHEMA (('AUTOMOTIVE_DESIGN { 1 0 10303 214 3 1 1 }'));
ENDSEC;

DATA;
#10=MECHANICAL_DESIGN_GEOMETRIC_PRESENTATION_REPRESENTATION('',(#13),#315);
#11=SHAPE_REPRESENTATION_RELATIONSHIP('SRR','None',#322,#12);
#12=ADVANCED_BREP_SHAPE_REPRESENTATION('',(#14),#314);
#13=STYLED_ITEM('',(#331),#14);
#14=MANIFOLD_SOLID_BREP('\X2\30BD30EA30C330C9\X0\1',#123);
#15=PLANE('',#150);
#16=PLANE('',#151);
#17=PLANE('',#155);
#18=FACE_BOUND('',#32,.T.);
#19=FACE_BOUND('',#35,.T.);
#20=FACE_BOUND('',#37,.T.);
#21=FACE_BOUND('',#39,.T.);
#22=FACE_BOUND('',#41,.T.);
#23=FACE_OUTER_BOUND('',#30,.T.);
#24=FACE_OUTER_BOUND('',#31,.T.);
#25=FACE_OUTER_BOUND('',#33,.T.);
#26=FACE_OUTER_BOUND('',#34,.T.);
#27=FACE_OUTER_BOUND('',#36,.T.);
#28=FACE_OUTER_BOUND('',#38,.T.);
#29=FACE_OUTER_BOUND('',#40,.T.);
#30=EDGE_LOOP('',(#84,#85,#86,#87,#88));
#31=EDGE_LOOP('',(#89,#90,#91,#92));
#32=EDGE_LOOP('',(#93,#94));
#33=EDGE_LOOP('',(#95,#96,#97,#98,#99));
#34=EDGE_LOOP('',(#100));
#35=EDGE_LOOP('',(#101));
#36=EDGE_LOOP('',(#102));
#37=EDGE_LOOP('',(#103));
#38=EDGE_LOOP('',(#104,#105,#106,#107));
#39=EDGE_LOOP('',(#108,#109));
#40=EDGE_LOOP('',(#110));
#41=EDGE_LOOP('',(#111));
#42=CIRCLE('',#144,9.2);
#43=CIRCLE('',#146,11.5);
#44=CIRCLE('',#147,11.5);
#45=CIRCLE('',#149,10.85);
#46=CIRCLE('',#152,12.7);
#47=CIRCLE('',#154,12.7);
#48=LINE('',#237,#52);
#49=LINE('',#243,#53);
#50=LINE('',#249,#54);
#51=LINE('',#310,#55);
#52=VECTOR('',#160,9.2);
#53=VECTOR('',#167,11.5);
#54=VECTOR('',#174,10.85);
#55=VECTOR('',#185,12.7);
#56=B_SPLINE_CURVE_WITH_KNOTS('',3,(#192,#193,#194,#195,#196,#197,#198,
#199,#200,#201,#202,#203,#204,#205,#206,#207,#208,#209,#210,#211,#212,#213,
#214,#215,#216,#217,#218,#219,#220,#221,#222,#223),.UNSPECIFIED.,.F.,.F.,
(4,2,2,2,2,2,2,2,2,2,2,2,2,2,2,4),(0.,0.188667519097324,0.377335038194648,
0.754670076389296,1.12026933161706,1.48586858684483,1.8514678420726,2.21706709730037,
2.59440213549502,2.78306965459234,2.97173717368966,3.16040469278699,3.34907221188431,
3.72640725007896,4.09200650530673,4.4576057605345),.UNSPECIFIED.);
#57=B_SPLINE_CURVE_WITH_KNOTS('',3,(#224,#225,#226,#227,#228,#229,#230,
#231,#232,#233,#234,#235),.UNSPECIFIED.,.F.,.F.,(4,2,2,2,2,4),(4.4576057605345,
4.82320501576226,5.18880427099003,5.56613930918468,5.754806828282,5.94347434737933),
 .UNSPECIFIED.);
#58=B_SPLINE_CURVE_WITH_KNOTS('',3,(#251,#252,#253,#254,#255,#256,#257,
#258,#259,#260,#261,#262,#263,#264),.UNSPECIFIED.,.F.,.F.,(4,2,2,2,2,2,
4),(0.,0.228621975444145,0.457243950888291,0.914487901776581,1.3496329244165,
1.56720543573646,1.78477794705642),.UNSPECIFIED.);
#59=B_SPLINE_CURVE_WITH_KNOTS('',3,(#265,#266,#267,#268,#269,#270,#271,
#272,#273,#274,#275,#276,#277,#278,#279,#280,#281,#282,#283,#284,#285,#286,
#287,#288,#289,#290,#291,#292,#293,#294,#295,#296,#297,#298,#299,#300,#301,
#302),.UNSPECIFIED.,.F.,.F.,(4,2,2,2,2,2,2,2,2,2,2,2,2,2,2,2,2,2,4),(1.78477794705642,
2.00235045837637,2.21992296969633,2.65506799233625,3.11231194322454,3.34093391866869,
3.56955589411283,3.79817786955698,4.02679984500112,4.48404379588941,4.91918881852933,
5.13676132984929,5.35433384116925,5.5719063524892,5.78947886380916,6.22462388644908,
6.68186783733737,6.91048981278152,7.13911178822566),.UNSPECIFIED.);
#60=VERTEX_POINT('',#190);
#61=VERTEX_POINT('',#191);
#62=VERTEX_POINT('',#236);
#63=VERTEX_POINT('',#240);
#64=VERTEX_POINT('',#242);
#65=VERTEX_POINT('',#246);
#66=VERTEX_POINT('',#248);
#67=VERTEX_POINT('',#250);
#68=VERTEX_POINT('',#305);
#69=VERTEX_POINT('',#308);
#70=EDGE_CURVE('',#60,#61,#56,.T.);
#71=EDGE_CURVE('',#61,#60,#57,.T.);
#72=EDGE_CURVE('',#61,#62,#48,.T.);
#73=EDGE_CURVE('',#62,#62,#42,.T.);
#74=EDGE_CURVE('',#63,#63,#43,.T.);
#75=EDGE_CURVE('',#63,#64,#49,.T.);
#76=EDGE_CURVE('',#64,#64,#44,.T.);
#77=EDGE_CURVE('',#65,#65,#45,.T.);
#78=EDGE_CURVE('',#65,#66,#50,.T.);
#79=EDGE_CURVE('',#67,#66,#58,.T.);
#80=EDGE_CURVE('',#66,#67,#59,.T.);
#81=EDGE_CURVE('',#68,#68,#46,.T.);
#82=EDGE_CURVE('',#69,#69,#47,.T.);
#83=EDGE_CURVE('',#69,#68,#51,.T.);
#84=ORIENTED_EDGE('',*,*,#70,.F.);
#85=ORIENTED_EDGE('',*,*,#71,.F.);
#86=ORIENTED_EDGE('',*,*,#72,.T.);
#87=ORIENTED_EDGE('',*,*,#73,.F.);
#88=ORIENTED_EDGE('',*,*,#72,.F.);
#89=ORIENTED_EDGE('',*,*,#74,.F.);
#90=ORIENTED_EDGE('',*,*,#75,.T.);
#91=ORIENTED_EDGE('',*,*,#76,.F.);
#92=ORIENTED_EDGE('',*,*,#75,.F.);
#93=ORIENTED_EDGE('',*,*,#70,.T.);
#94=ORIENTED_EDGE('',*,*,#71,.T.);
#95=ORIENTED_EDGE('',*,*,#77,.F.);
#96=ORIENTED_EDGE('',*,*,#78,.T.);
#97=ORIENTED_EDGE('',*,*,#79,.F.);
#98=ORIENTED_EDGE('',*,*,#80,.F.);
#99=ORIENTED_EDGE('',*,*,#78,.F.);
#100=ORIENTED_EDGE('',*,*,#77,.T.);
#101=ORIENTED_EDGE('',*,*,#73,.T.);
#102=ORIENTED_EDGE('',*,*,#81,.T.);
#103=ORIENTED_EDGE('',*,*,#74,.T.);
#104=ORIENTED_EDGE('',*,*,#82,.F.);
#105=ORIENTED_EDGE('',*,*,#83,.T.);
#106=ORIENTED_EDGE('',*,*,#81,.F.);
#107=ORIENTED_EDGE('',*,*,#83,.F.);
#108=ORIENTED_EDGE('',*,*,#79,.T.);
#109=ORIENTED_EDGE('',*,*,#80,.T.);
#110=ORIENTED_EDGE('',*,*,#82,.T.);
#111=ORIENTED_EDGE('',*,*,#76,.T.);
#112=CYLINDRICAL_SURFACE('',#143,9.2);
#113=CYLINDRICAL_SURFACE('',#145,11.5);
#114=CYLINDRICAL_SURFACE('',#148,10.85);
#115=CYLINDRICAL_SURFACE('',#153,12.7);
#116=ADVANCED_FACE('',(#23),#112,.F.);
#117=ADVANCED_FACE('',(#24,#18),#113,.F.);
#118=ADVANCED_FACE('',(#25),#114,.T.);
#119=ADVANCED_FACE('',(#26,#19),#15,.T.);
#120=ADVANCED_FACE('',(#27,#20),#16,.F.);
#121=ADVANCED_FACE('',(#28,#21),#115,.T.);
#122=ADVANCED_FACE('',(#29,#22),#17,.T.);
#123=CLOSED_SHELL('',(#116,#117,#118,#119,#120,#121,#122));
#124=DERIVED_UNIT_ELEMENT(#126,1.);
#125=DERIVED_UNIT_ELEMENT(#317,-3.);
#126=(
MASS_UNIT()
NAMED_UNIT(*)
SI_UNIT($,.GRAM.)
);
#127=DERIVED_UNIT((#124,#125));
#128=MEASURE_REPRESENTATION_ITEM('density measure',
POSITIVE_RATIO_MEASURE(1.),#127);
#129=PROPERTY_DEFINITION_REPRESENTATION(#134,#131);
#130=PROPERTY_DEFINITION_REPRESENTATION(#135,#132);
#131=REPRESENTATION('material name',(#133),#314);
#132=REPRESENTATION('density',(#128),#314);
#133=DESCRIPTIVE_REPRESENTATION_ITEM('\X2\4E00822C\X0\','\X2\4E00822C\X0\');
#134=PROPERTY_DEFINITION('material property','material name',#324);
#135=PROPERTY_DEFINITION('material property','density of part',#324);
#136=DATE_TIME_ROLE('creation_date');
#137=APPLIED_DATE_AND_TIME_ASSIGNMENT(#138,#136,(#324));
#138=DATE_AND_TIME(#139,#140);
#139=CALENDAR_DATE(2022,31,3);
#140=LOCAL_TIME(0,0,0.,#141);
#141=COORDINATED_UNIVERSAL_TIME_OFFSET(0,0,.BEHIND.);
#142=AXIS2_PLACEMENT_3D('placement',#188,#156,#157);
#143=AXIS2_PLACEMENT_3D('',#189,#158,#159);
#144=AXIS2_PLACEMENT_3D('',#238,#161,#162);
#145=AXIS2_PLACEMENT_3D('',#239,#163,#164);
#146=AXIS2_PLACEMENT_3D('',#241,#165,#166);
#147=AXIS2_PLACEMENT_3D('',#244,#168,#169);
#148=AXIS2_PLACEMENT_3D('',#245,#170,#171);
#149=AXIS2_PLACEMENT_3D('',#247,#172,#173);
#150=AXIS2_PLACEMENT_3D('',#303,#175,#176);
#151=AXIS2_PLACEMENT_3D('',#304,#177,#178);
#152=AXIS2_PLACEMENT_3D('',#306,#179,#180);
#153=AXIS2_PLACEMENT_3D('',#307,#181,#182);
#154=AXIS2_PLACEMENT_3D('',#309,#183,#184);
#155=AXIS2_PLACEMENT_3D('',#311,#186,#187);
#156=DIRECTION('axis',(0.,0.,1.));
#157=DIRECTION('refdir',(1.,0.,0.));
#158=DIRECTION('center_axis',(0.,0.,1.));
#159=DIRECTION('ref_axis',(1.,0.,0.));
#160=DIRECTION('',(0.,0.,1.));
#161=DIRECTION('center_axis',(0.,0.,-1.));
#162=DIRECTION('ref_axis',(1.,0.,0.));
#163=DIRECTION('center_axis',(1.,0.,0.));
#164=DIRECTION('ref_axis',(0.,1.,0.));
#165=DIRECTION('center_axis',(1.,0.,0.));
#166=DIRECTION('ref_axis',(0.,1.,0.));
#167=DIRECTION('',(1.,0.,0.));
#168=DIRECTION('center_axis',(-1.,0.,0.));
#169=DIRECTION('ref_axis',(0.,1.,0.));
#170=DIRECTION('center_axis',(0.,0.,1.));
#171=DIRECTION('ref_axis',(1.,0.,0.));
#172=DIRECTION('center_axis',(0.,0.,1.));
#173=DIRECTION('ref_axis',(1.,0.,0.));
#174=DIRECTION('',(0.,0.,-1.));
#175=DIRECTION('center_axis',(0.,0.,1.));
#176=DIRECTION('ref_axis',(1.,0.,0.));
#177=DIRECTION('center_axis',(1.,0.,0.));
#178=DIRECTION('ref_axis',(0.,0.,-1.));
#179=DIRECTION('center_axis',(-1.,0.,0.));
#180=DIRECTION('ref_axis',(0.,1.,0.));
#181=DIRECTION('center_axis',(1.,0.,0.));
#182=DIRECTION('ref_axis',(0.,1.,0.));
#183=DIRECTION('center_axis',(1.,0.,0.));
#184=DIRECTION('ref_axis',(0.,1.,0.));
#185=DIRECTION('',(-1.,0.,0.));
#186=DIRECTION('center_axis',(1.,0.,0.));
#187=DIRECTION('ref_axis',(0.,0.,-1.));
#188=CARTESIAN_POINT('',(0.,0.,0.));
#189=CARTESIAN_POINT('Origin',(0.,0.,0.));
#190=CARTESIAN_POINT('',(1.38777878078145E-16,-9.2,6.9));
#191=CARTESIAN_POINT('',(-9.2,-1.47003893373349E-16,11.5));
#192=CARTESIAN_POINT('Ctrl Pts',(1.38777878078145E-16,-9.2,6.9));
#193=CARTESIAN_POINT('Ctrl Pts',(0.628891730324414,-9.2,6.9));
#194=CARTESIAN_POINT('Ctrl Pts',(1.25252150233669,-9.13517554986246,6.98846719092117));
#195=CARTESIAN_POINT('Ctrl Pts',(2.46042767505002,-8.88631185839948,7.30229876454313));
#196=CARTESIAN_POINT('Ctrl Pts',(3.0451502940246,-8.70235046225843,7.52600507455561));
#197=CARTESIAN_POINT('Ctrl Pts',(4.7104235441111,-7.99420374125527,8.29634400656837));
#198=CARTESIAN_POINT('Ctrl Pts',(5.70516921626985,-7.30559555756262,8.93420123260759));
#199=CARTESIAN_POINT('Ctrl Pts',(7.28070752134188,-5.7300572524906,10.0150115932383));
#200=CARTESIAN_POINT('Ctrl Pts',(7.98290895661272,-4.73440608425548,10.5472590737721));
#201=CARTESIAN_POINT('Ctrl Pts',(8.94377995629219,-2.47996862501437,11.291989941573));
#202=CARTESIAN_POINT('Ctrl Pts',(9.2,-1.21866418409256,11.5));
#203=CARTESIAN_POINT('Ctrl Pts',(9.2,1.21866418409256,11.5));
#204=CARTESIAN_POINT('Ctrl Pts',(8.94377995629219,2.47996862501437,11.291989941573));
#205=CARTESIAN_POINT('Ctrl Pts',(7.98290895661272,4.73440608425548,10.5472590737721));
#206=CARTESIAN_POINT('Ctrl Pts',(7.28070752134188,5.7300572524906,10.0150115932383));
#207=CARTESIAN_POINT('Ctrl Pts',(5.70516921626985,7.30559555756262,8.93420123260759));
#208=CARTESIAN_POINT('Ctrl Pts',(4.71042354411109,7.99420374125527,8.29634400656836));
#209=CARTESIAN_POINT('Ctrl Pts',(3.0451502940246,8.70235046225843,7.52600507455561));
#210=CARTESIAN_POINT('Ctrl Pts',(2.46042767505002,8.88631185839948,7.30229876454312));
#211=CARTESIAN_POINT('Ctrl Pts',(1.25252150233669,9.13517554986246,6.98846719092117));
#212=CARTESIAN_POINT('Ctrl Pts',(0.628891730324413,9.2,6.9));
#213=CARTESIAN_POINT('Ctrl Pts',(-0.628891730324413,9.2,6.9));
#214=CARTESIAN_POINT('Ctrl Pts',(-1.25252150233669,9.13517554986246,6.98846719092117));
#215=CARTESIAN_POINT('Ctrl Pts',(-2.46042767505002,8.88631185839948,7.30229876454312));
#216=CARTESIAN_POINT('Ctrl Pts',(-3.0451502940246,8.70235046225843,7.52600507455561));
#217=CARTESIAN_POINT('Ctrl Pts',(-4.71042354411109,7.99420374125527,8.29634400656836));
#218=CARTESIAN_POINT('Ctrl Pts',(-5.70516921626985,7.30559555756262,8.93420123260759));
#219=CARTESIAN_POINT('Ctrl Pts',(-7.28070752134188,5.7300572524906,10.0150115932383));
#220=CARTESIAN_POINT('Ctrl Pts',(-7.98290895661272,4.73440608425548,10.5472590737721));
#221=CARTESIAN_POINT('Ctrl Pts',(-8.94377995629219,2.47996862501437,11.291989941573));
#222=CARTESIAN_POINT('Ctrl Pts',(-9.2,1.21866418409256,11.5));
#223=CARTESIAN_POINT('Ctrl Pts',(-9.2,1.66533453693773E-15,11.5));
#224=CARTESIAN_POINT('Ctrl Pts',(-9.2,8.32667268468867E-16,11.5));
#225=CARTESIAN_POINT('Ctrl Pts',(-9.2,-1.21866418409256,11.5));
#226=CARTESIAN_POINT('Ctrl Pts',(-8.94377995629219,-2.47996862501437,11.291989941573));
#227=CARTESIAN_POINT('Ctrl Pts',(-7.98290895661272,-4.73440608425548,10.5472590737721));
#228=CARTESIAN_POINT('Ctrl Pts',(-7.28070752134188,-5.7300572524906,10.0150115932383));
#229=CARTESIAN_POINT('Ctrl Pts',(-5.70516921626986,-7.30559555756262,8.9342012326076));
#230=CARTESIAN_POINT('Ctrl Pts',(-4.7104235441111,-7.99420374125527,8.29634400656837));
#231=CARTESIAN_POINT('Ctrl Pts',(-3.04515029402461,-8.70235046225842,7.52600507455561));
#232=CARTESIAN_POINT('Ctrl Pts',(-2.46042767505002,-8.88631185839947,7.30229876454312));
#233=CARTESIAN_POINT('Ctrl Pts',(-1.2525215023367,-9.13517554986245,6.98846719092117));
#234=CARTESIAN_POINT('Ctrl Pts',(-0.628891730324416,-9.2,6.9));
#235=CARTESIAN_POINT('Ctrl Pts',(0.,-9.2,6.9));
#236=CARTESIAN_POINT('',(-9.2,1.12667505521557E-15,14.2));
#237=CARTESIAN_POINT('',(-9.2,-1.12667505521557E-15,0.));
#238=CARTESIAN_POINT('Origin',(0.,0.,14.2));
#239=CARTESIAN_POINT('Origin',(0.,0.,0.));
#240=CARTESIAN_POINT('',(-35.,-11.5,-1.40834381901946E-15));
#241=CARTESIAN_POINT('Origin',(-35.,0.,0.));
#242=CARTESIAN_POINT('',(35.,-11.5,1.40834381901946E-15));
#243=CARTESIAN_POINT('',(0.,-11.5,-1.40834381901946E-15));
#244=CARTESIAN_POINT('Origin',(35.,0.,0.));
#245=CARTESIAN_POINT('Origin',(0.,0.,0.));
#246=CARTESIAN_POINT('',(-10.85,-1.32874177707488E-15,14.2));
#247=CARTESIAN_POINT('Origin',(0.,0.,14.2));
#248=CARTESIAN_POINT('',(-10.85,-1.42764921796723E-15,12.7));
#249=CARTESIAN_POINT('',(-10.85,-1.32874177707488E-15,0.));
#250=CARTESIAN_POINT('',(-6.93889390390723E-17,-10.85,6.60056815736342));
#251=CARTESIAN_POINT('Ctrl Pts',(-6.93889390390723E-17,-10.85,6.60056815736342));
#252=CARTESIAN_POINT('Ctrl Pts',(-0.762073251480485,-10.85,6.60056815736342));
#253=CARTESIAN_POINT('Ctrl Pts',(-1.50098139473461,-10.770132486655,6.73550203662373));
#254=CARTESIAN_POINT('Ctrl Pts',(-2.92132650356821,-10.4744713659145,7.18666759125366));
#255=CARTESIAN_POINT('Ctrl Pts',(-3.6035309997686,-10.2584376713888,7.5003215751507));
#256=CARTESIAN_POINT('Ctrl Pts',(-5.55212588366753,-9.42816806278893,8.55576522276634));
#257=CARTESIAN_POINT('Ctrl Pts',(-6.72223206987636,-8.62198508187172,9.40064521369801));
#258=CARTESIAN_POINT('Ctrl Pts',(-8.57607686873937,-6.76814028300871,10.8059715229225));
#259=CARTESIAN_POINT('Ctrl Pts',(-9.40386725875482,-5.60170875377809,11.4848382071138));
#260=CARTESIAN_POINT('Ctrl Pts',(-10.2577697846423,-3.60873989767919,12.1969120220852));
#261=CARTESIAN_POINT('Ctrl Pts',(-10.4799546085844,-2.90424252129577,12.3851057411864));
#262=CARTESIAN_POINT('Ctrl Pts',(-10.7761363213532,-1.46251810624296,12.6367127703003));
#263=CARTESIAN_POINT('Ctrl Pts',(-10.85,-0.725241704399863,12.7));
#264=CARTESIAN_POINT('Ctrl Pts',(-10.85,-6.93889390390723E-16,12.7));
#265=CARTESIAN_POINT('Ctrl Pts',(-10.85,-1.52655665885959E-15,12.7));
#266=CARTESIAN_POINT('Ctrl Pts',(-10.85,0.725241704399861,12.7));
#267=CARTESIAN_POINT('Ctrl Pts',(-10.7761363213532,1.46251810624296,12.6367127703003));
#268=CARTESIAN_POINT('Ctrl Pts',(-10.4799546085844,2.90424252129576,12.3851057411864));
#269=CARTESIAN_POINT('Ctrl Pts',(-10.2577697846423,3.60873989767919,12.1969120220852));
#270=CARTESIAN_POINT('Ctrl Pts',(-9.40386725875483,5.60170875377809,11.4848382071138));
#271=CARTESIAN_POINT('Ctrl Pts',(-8.57607686873937,6.76814028300871,10.8059715229225));
#272=CARTESIAN_POINT('Ctrl Pts',(-6.72223206987636,8.62198508187172,9.40064521369801));
#273=CARTESIAN_POINT('Ctrl Pts',(-5.55212588366753,9.42816806278894,8.55576522276634));
#274=CARTESIAN_POINT('Ctrl Pts',(-3.6035309997686,10.2584376713888,7.5003215751507));
#275=CARTESIAN_POINT('Ctrl Pts',(-2.92132650356822,10.4744713659145,7.18666759125366));
#276=CARTESIAN_POINT('Ctrl Pts',(-1.50098139473461,10.770132486655,6.73550203662373));
#277=CARTESIAN_POINT('Ctrl Pts',(-0.762073251480485,10.85,6.60056815736343));
#278=CARTESIAN_POINT('Ctrl Pts',(0.762073251480485,10.85,6.60056815736343));
#279=CARTESIAN_POINT('Ctrl Pts',(1.50098139473462,10.770132486655,6.73550203662372));
#280=CARTESIAN_POINT('Ctrl Pts',(2.92132650356822,10.4744713659145,7.18666759125366));
#281=CARTESIAN_POINT('Ctrl Pts',(3.6035309997686,10.2584376713888,7.50032157515071));
#282=CARTESIAN_POINT('Ctrl Pts',(5.55212588366753,9.42816806278893,8.55576522276634));
#283=CARTESIAN_POINT('Ctrl Pts',(6.72223206987636,8.62198508187172,9.40064521369801));
#284=CARTESIAN_POINT('Ctrl Pts',(8.57607686873937,6.76814028300871,10.8059715229225));
#285=CARTESIAN_POINT('Ctrl Pts',(9.40386725875482,5.60170875377809,11.4848382071138));
#286=CARTESIAN_POINT('Ctrl Pts',(10.2577697846423,3.60873989767919,12.1969120220852));
#287=CARTESIAN_POINT('Ctrl Pts',(10.4799546085844,2.90424252129577,12.3851057411864));
#288=CARTESIAN_POINT('Ctrl Pts',(10.7761363213532,1.46251810624296,12.6367127703003));
#289=CARTESIAN_POINT('Ctrl Pts',(10.85,0.725241704399865,12.7));
#290=CARTESIAN_POINT('Ctrl Pts',(10.85,-0.725241704399859,12.7));
#291=CARTESIAN_POINT('Ctrl Pts',(10.7761363213532,-1.46251810624296,12.6367127703003));
#292=CARTESIAN_POINT('Ctrl Pts',(10.4799546085844,-2.90424252129576,12.3851057411864));
#293=CARTESIAN_POINT('Ctrl Pts',(10.2577697846423,-3.60873989767919,12.1969120220852));
#294=CARTESIAN_POINT('Ctrl Pts',(9.40386725875482,-5.60170875377809,11.4848382071138));
#295=CARTESIAN_POINT('Ctrl Pts',(8.57607686873937,-6.76814028300871,10.8059715229225));
#296=CARTESIAN_POINT('Ctrl Pts',(6.72223206987636,-8.62198508187172,9.40064521369801));
#297=CARTESIAN_POINT('Ctrl Pts',(5.55212588366753,-9.42816806278894,8.55576522276634));
#298=CARTESIAN_POINT('Ctrl Pts',(3.6035309997686,-10.2584376713888,7.50032157515071));
#299=CARTESIAN_POINT('Ctrl Pts',(2.92132650356822,-10.4744713659145,7.18666759125366));
#300=CARTESIAN_POINT('Ctrl Pts',(1.50098139473461,-10.770132486655,6.73550203662373));
#301=CARTESIAN_POINT('Ctrl Pts',(0.762073251480485,-10.85,6.60056815736342));
#302=CARTESIAN_POINT('Ctrl Pts',(5.55111512312578E-16,-10.85,6.60056815736342));
#303=CARTESIAN_POINT('Origin',(0.,0.,14.2));
#304=CARTESIAN_POINT('Origin',(-35.,0.,0.));
#305=CARTESIAN_POINT('',(-35.,-12.7,-1.55530143491714E-15));
#306=CARTESIAN_POINT('Origin',(-35.,0.,0.));
#307=CARTESIAN_POINT('Origin',(0.,0.,0.));
#308=CARTESIAN_POINT('',(35.,-12.7,-1.55530143491714E-15));
#309=CARTESIAN_POINT('Origin',(35.,0.,0.));
#310=CARTESIAN_POINT('',(0.,-12.7,-1.55530143491714E-15));
#311=CARTESIAN_POINT('Origin',(35.,0.,0.));
#312=UNCERTAINTY_MEASURE_WITH_UNIT(LENGTH_MEASURE(0.01),#316,
'DISTANCE_ACCURACY_VALUE',
'Maximum model space distance between geometric entities at asserted c
onnectivities');
#313=UNCERTAINTY_MEASURE_WITH_UNIT(LENGTH_MEASURE(0.01),#316,
'DISTANCE_ACCURACY_VALUE',
'Maximum model space distance between geometric entities at asserted c
onnectivities');
#314=(
GEOMETRIC_REPRESENTATION_CONTEXT(3)
GLOBAL_UNCERTAINTY_ASSIGNED_CONTEXT((#312))
GLOBAL_UNIT_ASSIGNED_CONTEXT((#316,#318,#319))
REPRESENTATION_CONTEXT('','3D')
);
#315=(
GEOMETRIC_REPRESENTATION_CONTEXT(3)
GLOBAL_UNCERTAINTY_ASSIGNED_CONTEXT((#313))
GLOBAL_UNIT_ASSIGNED_CONTEXT((#316,#318,#319))
REPRESENTATION_CONTEXT('','3D')
);
#316=(
LENGTH_UNIT()
NAMED_UNIT(*)
SI_UNIT(.MILLI.,.METRE.)
);
#317=(
LENGTH_UNIT()
NAMED_UNIT(*)
SI_UNIT(.CENTI.,.METRE.)
);
#318=(
NAMED_UNIT(*)
PLANE_ANGLE_UNIT()
SI_UNIT($,.RADIAN.)
);
#319=(
NAMED_UNIT(*)
SI_UNIT($,.STERADIAN.)
SOLID_ANGLE_UNIT()
);
#320=SHAPE_DEFINITION_REPRESENTATION(#321,#322);
#321=PRODUCT_DEFINITION_SHAPE('',$,#324);
#322=SHAPE_REPRESENTATION('',(#142),#314);
#323=PRODUCT_DEFINITION_CONTEXT('part definition',#328,'design');
#324=PRODUCT_DEFINITION('T-8 10\X\D704','T-8 10\X\D704',#325,#323);
#325=PRODUCT_DEFINITION_FORMATION('',$,#330);
#326=PRODUCT_RELATED_PRODUCT_CATEGORY('T-8 10\X\D704','T-8 10\X\D704',(#330));
#327=APPLICATION_PROTOCOL_DEFINITION('international standard',
'automotive_design',2009,#328);
#328=APPLICATION_CONTEXT(
'Core Data for Automotive Mechanical Design Process');
#329=PRODUCT_CONTEXT('part definition',#328,'mechanical');
#330=PRODUCT('T-8 10\X\D704','T-8 10\X\D704',$,(#329));
#331=PRESENTATION_STYLE_ASSIGNMENT((#332));
#332=SURFACE_STYLE_USAGE(.BOTH.,#335);
#333=SURFACE_STYLE_RENDERING_WITH_PROPERTIES($,#339,(#334));
#334=SURFACE_STYLE_TRANSPARENT(0.);
#335=SURFACE_SIDE_STYLE('',(#336,#333));
#336=SURFACE_STYLE_FILL_AREA(#337);
#337=FILL_AREA_STYLE('',(#338));
#338=FILL_AREA_STYLE_COLOUR('',#339);
#339=COLOUR_RGB('',0.749019607843137,0.749019607843137,0.749019607843137);
ENDSEC;
END-ISO-10303-21;
