ISO-10303-21;
HEADER;
/* Generated by software containing ST-Developer
 * from STEP Tools, Inc. (www.steptools.com) 
 */

FILE_DESCRIPTION(
/* description */ (''),
/* implementation_level */ '2;1');

FILE_NAME(
/* name */ 
'\\\\Tske00\\w\\Work\\TOSTE\\\X2\7D99624B\X0\\\02_\X2\6EB663A5\X0\\\\X2\6EB663A530A830EB30DC\X0\\\
T-5 02.stp',
/* time_stamp */ '2022-04-12T13:39:38+09:00',
/* author */ ('3dcad-eng'),
/* organization */ (''),
/* preprocessor_version */ 'ST-DEVELOPER v18.1',
/* originating_system */ 'Autodesk Inventor 2022',
/* authorisation */ '');

FILE_SCHEMA (('AUTOMOTIVE_DESIGN { 1 0 10303 214 3 1 1 }'));
ENDSEC;

DATA;
#10=MECHANICAL_DESIGN_GEOMETRIC_PRESENTATION_REPRESENTATION('',(#16),#257);
#11=CONSTRUCTIVE_GEOMETRY_REPRESENTATION_RELATIONSHIP('CGRR','None',#264,
#12);
#12=CONSTRUCTIVE_GEOMETRY_REPRESENTATION('',(#13),#256);
#13=GEOMETRIC_CURVE_SET('\X2\30B930B130C330C1\X0\3',(#253));
#14=SHAPE_REPRESENTATION_RELATIONSHIP('SRR','None',#264,#15);
#15=ADVANCED_BREP_SHAPE_REPRESENTATION('',(#17),#256);
#16=STYLED_ITEM('',(#273),#17);
#17=MANIFOLD_SOLID_BREP('\X2\30BD30EA30C330C9\X0\1',#132);
#18=FACE_BOUND('',#39,.T.);
#19=FACE_BOUND('',#41,.T.);
#20=PLANE('',#170);
#21=PLANE('',#171);
#22=TOROIDAL_SURFACE('',#155,38.1000000000001,5.25);
#23=TOROIDAL_SURFACE('',#164,38.1000000000001,6.9);
#24=FACE_OUTER_BOUND('',#32,.T.);
#25=FACE_OUTER_BOUND('',#33,.T.);
#26=FACE_OUTER_BOUND('',#34,.T.);
#27=FACE_OUTER_BOUND('',#35,.T.);
#28=FACE_OUTER_BOUND('',#36,.T.);
#29=FACE_OUTER_BOUND('',#37,.T.);
#30=FACE_OUTER_BOUND('',#38,.T.);
#31=FACE_OUTER_BOUND('',#40,.T.);
#32=EDGE_LOOP('',(#88,#89,#90,#91));
#33=EDGE_LOOP('',(#92,#93,#94,#95));
#34=EDGE_LOOP('',(#96,#97,#98,#99));
#35=EDGE_LOOP('',(#100,#101,#102,#103,#104));
#36=EDGE_LOOP('',(#105,#106,#107,#108,#109,#110));
#37=EDGE_LOOP('',(#111,#112,#113,#114,#115));
#38=EDGE_LOOP('',(#116));
#39=EDGE_LOOP('',(#117));
#40=EDGE_LOOP('',(#118));
#41=EDGE_LOOP('',(#119));
#42=LINE('',#223,#46);
#43=LINE('',#232,#47);
#44=LINE('',#237,#48);
#45=LINE('',#249,#49);
#46=VECTOR('',#178,5.25);
#47=VECTOR('',#191,5.25);
#48=VECTOR('',#196,6.9);
#49=VECTOR('',#211,6.9);
#50=CIRCLE('',#153,5.25);
#51=CIRCLE('',#154,5.25);
#52=CIRCLE('',#156,5.25);
#53=CIRCLE('',#157,32.8500000000001);
#54=CIRCLE('',#159,5.25);
#55=CIRCLE('',#161,6.9);
#56=CIRCLE('',#162,6.9);
#57=CIRCLE('',#163,6.9);
#58=CIRCLE('',#165,31.2);
#59=CIRCLE('',#166,6.9);
#60=CIRCLE('',#167,6.9);
#61=CIRCLE('',#169,6.9);
#62=VERTEX_POINT('',#220);
#63=VERTEX_POINT('',#222);
#64=VERTEX_POINT('',#226);
#65=VERTEX_POINT('',#230);
#66=VERTEX_POINT('',#234);
#67=VERTEX_POINT('',#236);
#68=VERTEX_POINT('',#238);
#69=VERTEX_POINT('',#242);
#70=VERTEX_POINT('',#244);
#71=VERTEX_POINT('',#248);
#72=EDGE_CURVE('',#62,#62,#50,.T.);
#73=EDGE_CURVE('',#62,#63,#42,.T.);
#74=EDGE_CURVE('',#63,#63,#51,.T.);
#75=EDGE_CURVE('',#64,#64,#52,.T.);
#76=EDGE_CURVE('',#64,#62,#53,.T.);
#77=EDGE_CURVE('',#65,#65,#54,.T.);
#78=EDGE_CURVE('',#65,#64,#43,.T.);
#79=EDGE_CURVE('',#66,#66,#55,.T.);
#80=EDGE_CURVE('',#66,#67,#44,.T.);
#81=EDGE_CURVE('',#67,#68,#56,.T.);
#82=EDGE_CURVE('',#68,#67,#57,.T.);
#83=EDGE_CURVE('',#68,#69,#58,.T.);
#84=EDGE_CURVE('',#69,#70,#59,.T.);
#85=EDGE_CURVE('',#70,#69,#60,.T.);
#86=EDGE_CURVE('',#70,#71,#45,.T.);
#87=EDGE_CURVE('',#71,#71,#61,.T.);
#88=ORIENTED_EDGE('',*,*,#72,.F.);
#89=ORIENTED_EDGE('',*,*,#73,.T.);
#90=ORIENTED_EDGE('',*,*,#74,.F.);
#91=ORIENTED_EDGE('',*,*,#73,.F.);
#92=ORIENTED_EDGE('',*,*,#75,.F.);
#93=ORIENTED_EDGE('',*,*,#76,.T.);
#94=ORIENTED_EDGE('',*,*,#72,.T.);
#95=ORIENTED_EDGE('',*,*,#76,.F.);
#96=ORIENTED_EDGE('',*,*,#77,.F.);
#97=ORIENTED_EDGE('',*,*,#78,.T.);
#98=ORIENTED_EDGE('',*,*,#75,.T.);
#99=ORIENTED_EDGE('',*,*,#78,.F.);
#100=ORIENTED_EDGE('',*,*,#79,.F.);
#101=ORIENTED_EDGE('',*,*,#80,.T.);
#102=ORIENTED_EDGE('',*,*,#81,.T.);
#103=ORIENTED_EDGE('',*,*,#82,.T.);
#104=ORIENTED_EDGE('',*,*,#80,.F.);
#105=ORIENTED_EDGE('',*,*,#82,.F.);
#106=ORIENTED_EDGE('',*,*,#83,.T.);
#107=ORIENTED_EDGE('',*,*,#84,.T.);
#108=ORIENTED_EDGE('',*,*,#85,.T.);
#109=ORIENTED_EDGE('',*,*,#83,.F.);
#110=ORIENTED_EDGE('',*,*,#81,.F.);
#111=ORIENTED_EDGE('',*,*,#84,.F.);
#112=ORIENTED_EDGE('',*,*,#85,.F.);
#113=ORIENTED_EDGE('',*,*,#86,.T.);
#114=ORIENTED_EDGE('',*,*,#87,.T.);
#115=ORIENTED_EDGE('',*,*,#86,.F.);
#116=ORIENTED_EDGE('',*,*,#79,.T.);
#117=ORIENTED_EDGE('',*,*,#74,.T.);
#118=ORIENTED_EDGE('',*,*,#87,.F.);
#119=ORIENTED_EDGE('',*,*,#77,.T.);
#120=CYLINDRICAL_SURFACE('',#152,5.25);
#121=CYLINDRICAL_SURFACE('',#158,5.25);
#122=CYLINDRICAL_SURFACE('',#160,6.9);
#123=CYLINDRICAL_SURFACE('',#168,6.9);
#124=ADVANCED_FACE('',(#24),#120,.F.);
#125=ADVANCED_FACE('',(#25),#22,.F.);
#126=ADVANCED_FACE('',(#26),#121,.F.);
#127=ADVANCED_FACE('',(#27),#122,.T.);
#128=ADVANCED_FACE('',(#28),#23,.T.);
#129=ADVANCED_FACE('',(#29),#123,.T.);
#130=ADVANCED_FACE('',(#30,#18),#20,.T.);
#131=ADVANCED_FACE('',(#31,#19),#21,.F.);
#132=CLOSED_SHELL('',(#124,#125,#126,#127,#128,#129,#130,#131));
#133=DERIVED_UNIT_ELEMENT(#135,1.);
#134=DERIVED_UNIT_ELEMENT(#259,-3.);
#135=(
MASS_UNIT()
NAMED_UNIT(*)
SI_UNIT($,.GRAM.)
);
#136=DERIVED_UNIT((#133,#134));
#137=MEASURE_REPRESENTATION_ITEM('density measure',
POSITIVE_RATIO_MEASURE(1.),#136);
#138=PROPERTY_DEFINITION_REPRESENTATION(#143,#140);
#139=PROPERTY_DEFINITION_REPRESENTATION(#144,#141);
#140=REPRESENTATION('material name',(#142),#256);
#141=REPRESENTATION('density',(#137),#256);
#142=DESCRIPTIVE_REPRESENTATION_ITEM('\X2\4E00822C\X0\','\X2\4E00822C\X0\');
#143=PROPERTY_DEFINITION('material property','material name',#266);
#144=PROPERTY_DEFINITION('material property','density of part',#266);
#145=DATE_TIME_ROLE('creation_date');
#146=APPLIED_DATE_AND_TIME_ASSIGNMENT(#147,#145,(#266));
#147=DATE_AND_TIME(#148,#149);
#148=CALENDAR_DATE(2022,29,3);
#149=LOCAL_TIME(0,0,0.,#150);
#150=COORDINATED_UNIVERSAL_TIME_OFFSET(0,0,.BEHIND.);
#151=AXIS2_PLACEMENT_3D('placement',#218,#172,#173);
#152=AXIS2_PLACEMENT_3D('',#219,#174,#175);
#153=AXIS2_PLACEMENT_3D('',#221,#176,#177);
#154=AXIS2_PLACEMENT_3D('',#224,#179,#180);
#155=AXIS2_PLACEMENT_3D('',#225,#181,#182);
#156=AXIS2_PLACEMENT_3D('',#227,#183,#184);
#157=AXIS2_PLACEMENT_3D('',#228,#185,#186);
#158=AXIS2_PLACEMENT_3D('',#229,#187,#188);
#159=AXIS2_PLACEMENT_3D('',#231,#189,#190);
#160=AXIS2_PLACEMENT_3D('',#233,#192,#193);
#161=AXIS2_PLACEMENT_3D('',#235,#194,#195);
#162=AXIS2_PLACEMENT_3D('',#239,#197,#198);
#163=AXIS2_PLACEMENT_3D('',#240,#199,#200);
#164=AXIS2_PLACEMENT_3D('',#241,#201,#202);
#165=AXIS2_PLACEMENT_3D('',#243,#203,#204);
#166=AXIS2_PLACEMENT_3D('',#245,#205,#206);
#167=AXIS2_PLACEMENT_3D('',#246,#207,#208);
#168=AXIS2_PLACEMENT_3D('',#247,#209,#210);
#169=AXIS2_PLACEMENT_3D('',#250,#212,#213);
#170=AXIS2_PLACEMENT_3D('',#251,#214,#215);
#171=AXIS2_PLACEMENT_3D('',#252,#216,#217);
#172=DIRECTION('axis',(0.,0.,1.));
#173=DIRECTION('refdir',(1.,0.,0.));
#174=DIRECTION('center_axis',(-0.707106781186367,0.707106781186728,0.));
#175=DIRECTION('ref_axis',(0.707106781186728,0.707106781186367,0.));
#176=DIRECTION('center_axis',(-0.707106781186547,0.707106781186548,0.));
#177=DIRECTION('ref_axis',(0.707106781186548,0.707106781186547,0.));
#178=DIRECTION('',(-0.707106781186367,0.707106781186728,0.));
#179=DIRECTION('center_axis',(0.707106781186547,-0.707106781186548,0.));
#180=DIRECTION('ref_axis',(0.707106781186728,0.707106781186367,0.));
#181=DIRECTION('center_axis',(0.,0.,1.));
#182=DIRECTION('ref_axis',(1.,0.,0.));
#183=DIRECTION('center_axis',(0.,1.,0.));
#184=DIRECTION('ref_axis',(1.,0.,0.));
#185=DIRECTION('center_axis',(0.,0.,1.));
#186=DIRECTION('ref_axis',(1.,0.,0.));
#187=DIRECTION('center_axis',(-1.04799505555522E-13,1.,0.));
#188=DIRECTION('ref_axis',(1.,1.04799505555522E-13,0.));
#189=DIRECTION('center_axis',(0.,1.,0.));
#190=DIRECTION('ref_axis',(1.,1.04799505555522E-13,0.));
#191=DIRECTION('',(-1.04799505555522E-13,1.,0.));
#192=DIRECTION('center_axis',(-0.707106781186367,0.707106781186728,0.));
#193=DIRECTION('ref_axis',(-0.707106781186728,-0.707106781186367,0.));
#194=DIRECTION('center_axis',(-0.707106781186547,0.707106781186548,0.));
#195=DIRECTION('ref_axis',(-0.707106781186548,-0.707106781186547,0.));
#196=DIRECTION('',(0.707106781186367,-0.707106781186728,0.));
#197=DIRECTION('center_axis',(-0.707106781186547,0.707106781186548,0.));
#198=DIRECTION('ref_axis',(-0.707106781186548,-0.707106781186547,0.));
#199=DIRECTION('center_axis',(-0.707106781186547,0.707106781186548,0.));
#200=DIRECTION('ref_axis',(-0.707106781186548,-0.707106781186547,0.));
#201=DIRECTION('center_axis',(0.,0.,1.));
#202=DIRECTION('ref_axis',(1.,0.,0.));
#203=DIRECTION('center_axis',(0.,0.,-1.));
#204=DIRECTION('ref_axis',(1.,0.,0.));
#205=DIRECTION('center_axis',(0.,1.,0.));
#206=DIRECTION('ref_axis',(-1.,0.,0.));
#207=DIRECTION('center_axis',(0.,1.,0.));
#208=DIRECTION('ref_axis',(-1.,0.,0.));
#209=DIRECTION('center_axis',(-1.04799505555522E-13,1.,0.));
#210=DIRECTION('ref_axis',(-1.,-1.04799505555522E-13,0.));
#211=DIRECTION('',(1.04799505555522E-13,-1.,0.));
#212=DIRECTION('center_axis',(0.,1.,0.));
#213=DIRECTION('ref_axis',(-1.,0.,0.));
#214=DIRECTION('center_axis',(-0.707106781186547,0.707106781186548,0.));
#215=DIRECTION('ref_axis',(0.,0.,1.));
#216=DIRECTION('center_axis',(0.,1.,0.));
#217=DIRECTION('ref_axis',(0.,0.,1.));
#218=CARTESIAN_POINT('',(0.,0.,0.));
#219=CARTESIAN_POINT('Origin',(-11.1592316367926,11.1592316367925,0.));
#220=CARTESIAN_POINT('',(-14.8715422380219,7.44692103556317,6.42939569552361E-16));
#221=CARTESIAN_POINT('Origin',(-11.1592316367926,11.1592316367925,0.));
#222=CARTESIAN_POINT('',(-14.8845977439768,7.45997654151807,6.42939569552361E-16));
#223=CARTESIAN_POINT('',(-14.8715422380229,7.44692103556411,6.42939569552361E-16));
#224=CARTESIAN_POINT('Origin',(-11.1722871427475,11.1722871427474,0.));
#225=CARTESIAN_POINT('Origin',(-38.1000000000001,-15.781536726415,0.));
#226=CARTESIAN_POINT('',(-5.25,-15.7815367264149,6.42939569552361E-16));
#227=CARTESIAN_POINT('Origin',(-1.93494194265277E-15,-15.7815367264149,
0.));
#228=CARTESIAN_POINT('Origin',(-38.1000000000001,-15.781536726415,-6.42939569552361E-16));
#229=CARTESIAN_POINT('Origin',(0.,-15.8,0.));
#230=CARTESIAN_POINT('',(-5.25,-15.8,6.42939569552361E-16));
#231=CARTESIAN_POINT('Origin',(0.,-15.8,0.));
#232=CARTESIAN_POINT('',(-5.25,-15.8000000000006,6.42939569552361E-16));
#233=CARTESIAN_POINT('Origin',(-11.1592316367926,11.1592316367925,0.));
#234=CARTESIAN_POINT('',(-6.29325035256027,16.0513239329346,-8.45006291411674E-16));
#235=CARTESIAN_POINT('Origin',(-11.1722871427475,11.1722871427474,0.));
#236=CARTESIAN_POINT('',(-6.28019484660289,16.0382684269772,-8.45006291411674E-16));
#237=CARTESIAN_POINT('',(-6.28019484660413,16.0382684269785,-8.45006291411674E-16));
#238=CARTESIAN_POINT('',(-16.0382684269797,6.28019484660537,0.));
#239=CARTESIAN_POINT('Origin',(-11.1592316367926,11.1592316367925,0.));
#240=CARTESIAN_POINT('Origin',(-11.1592316367926,11.1592316367925,0.));
#241=CARTESIAN_POINT('Origin',(-38.1000000000001,-15.781536726415,0.));
#242=CARTESIAN_POINT('',(-6.9,-15.7815367264149,0.));
#243=CARTESIAN_POINT('Origin',(-38.1000000000001,-15.781536726415,-8.45006291411674E-16));
#244=CARTESIAN_POINT('',(6.9,-15.7815367264135,-8.45006291411674E-16));
#245=CARTESIAN_POINT('Origin',(-1.93494194265277E-15,-15.7815367264149,
0.));
#246=CARTESIAN_POINT('Origin',(-1.93494194265277E-15,-15.7815367264149,
0.));
#247=CARTESIAN_POINT('Origin',(0.,-15.8,0.));
#248=CARTESIAN_POINT('',(6.9,-15.8,-8.45006291411674E-16));
#249=CARTESIAN_POINT('',(6.9,-15.7999999999993,-8.45006291411674E-16));
#250=CARTESIAN_POINT('Origin',(0.,-15.8,0.));
#251=CARTESIAN_POINT('Origin',(-11.1722871427475,11.1722871427474,0.));
#252=CARTESIAN_POINT('Origin',(0.,-15.8,0.));
#253=CARTESIAN_POINT('',(0.,-15.8,0.));
#254=UNCERTAINTY_MEASURE_WITH_UNIT(LENGTH_MEASURE(0.01),#258,
'DISTANCE_ACCURACY_VALUE',
'Maximum model space distance between geometric entities at asserted c
onnectivities');
#255=UNCERTAINTY_MEASURE_WITH_UNIT(LENGTH_MEASURE(0.01),#258,
'DISTANCE_ACCURACY_VALUE',
'Maximum model space distance between geometric entities at asserted c
onnectivities');
#256=(
GEOMETRIC_REPRESENTATION_CONTEXT(3)
GLOBAL_UNCERTAINTY_ASSIGNED_CONTEXT((#254))
GLOBAL_UNIT_ASSIGNED_CONTEXT((#258,#260,#261))
REPRESENTATION_CONTEXT('','3D')
);
#257=(
GEOMETRIC_REPRESENTATION_CONTEXT(3)
GLOBAL_UNCERTAINTY_ASSIGNED_CONTEXT((#255))
GLOBAL_UNIT_ASSIGNED_CONTEXT((#258,#260,#261))
REPRESENTATION_CONTEXT('','3D')
);
#258=(
LENGTH_UNIT()
NAMED_UNIT(*)
SI_UNIT(.MILLI.,.METRE.)
);
#259=(
LENGTH_UNIT()
NAMED_UNIT(*)
SI_UNIT(.CENTI.,.METRE.)
);
#260=(
NAMED_UNIT(*)
PLANE_ANGLE_UNIT()
SI_UNIT($,.RADIAN.)
);
#261=(
NAMED_UNIT(*)
SI_UNIT($,.STERADIAN.)
SOLID_ANGLE_UNIT()
);
#262=SHAPE_DEFINITION_REPRESENTATION(#263,#264);
#263=PRODUCT_DEFINITION_SHAPE('',$,#266);
#264=SHAPE_REPRESENTATION('',(#151),#256);
#265=PRODUCT_DEFINITION_CONTEXT('part definition',#270,'design');
#266=PRODUCT_DEFINITION('T-5 02','T-5 02',#267,#265);
#267=PRODUCT_DEFINITION_FORMATION('',$,#272);
#268=PRODUCT_RELATED_PRODUCT_CATEGORY('T-5 02','T-5 02',(#272));
#269=APPLICATION_PROTOCOL_DEFINITION('international standard',
'automotive_design',2009,#270);
#270=APPLICATION_CONTEXT(
'Core Data for Automotive Mechanical Design Process');
#271=PRODUCT_CONTEXT('part definition',#270,'mechanical');
#272=PRODUCT('T-5 02','T-5 02',$,(#271));
#273=PRESENTATION_STYLE_ASSIGNMENT((#275));
#274=PRESENTATION_STYLE_ASSIGNMENT((#276));
#275=SURFACE_STYLE_USAGE(.BOTH.,#279);
#276=SURFACE_STYLE_USAGE(.BOTH.,#280);
#277=SURFACE_STYLE_RENDERING_WITH_PROPERTIES($,#287,(#278));
#278=SURFACE_STYLE_TRANSPARENT(0.);
#279=SURFACE_SIDE_STYLE('',(#281,#277));
#280=SURFACE_SIDE_STYLE('',(#282));
#281=SURFACE_STYLE_FILL_AREA(#283);
#282=SURFACE_STYLE_FILL_AREA(#284);
#283=FILL_AREA_STYLE('',(#285));
#284=FILL_AREA_STYLE('',(#286));
#285=FILL_AREA_STYLE_COLOUR('',#287);
#286=FILL_AREA_STYLE_COLOUR('',#288);
#287=COLOUR_RGB('',0.749019607843137,0.749019607843137,0.749019607843137);
#288=COLOUR_RGB('',0.913725490196078,0.454901960784314,0.);
ENDSEC;
END-ISO-10303-21;
