ISO-10303-21;
HEADER;
/* Generated by software containing ST-Developer
 * from STEP Tools, Inc. (www.steptools.com) 
 */

FILE_DESCRIPTION(
/* description */ (''),
/* implementation_level */ '2;1');

FILE_NAME(
/* name */ 
'\\\\Tske00\\w\\Work\\TOSTE\\\X2\7D99624B\X0\\\02_\X2\6EB663A5\X0\\\\X2\6EB663A530EC30B830E530FC30B530FC\X0\\\
\X2\30A830AD30BB30F330C830EC30B830E530FC30B530FC\X0\\\T14 40\X\D735.st
p',
/* time_stamp */ '2022-04-12T12:01:30+09:00',
/* author */ ('3dcad-eng'),
/* organization */ (''),
/* preprocessor_version */ 'ST-DEVELOPER v18.1',
/* originating_system */ 'Autodesk Inventor 2022',
/* authorisation */ '');

FILE_SCHEMA (('AUTOMOTIVE_DESIGN { 1 0 10303 214 3 1 1 }'));
ENDSEC;

DATA;
#10=MECHANICAL_DESIGN_GEOMETRIC_PRESENTATION_REPRESENTATION('',(#13),#337);
#11=SHAPE_REPRESENTATION_RELATIONSHIP('SRR','None',#344,#12);
#12=ADVANCED_BREP_SHAPE_REPRESENTATION('',(#14),#336);
#13=STYLED_ITEM('',(#353),#14);
#14=MANIFOLD_SOLID_BREP('\X2\30BD30EA30C330C9\X0\1',#159);
#15=FACE_BOUND('',#43,.T.);
#16=FACE_BOUND('',#46,.T.);
#17=PLANE('',#193);
#18=PLANE('',#196);
#19=LINE('',#319,#23);
#20=LINE('',#324,#24);
#21=LINE('',#331,#25);
#22=LINE('',#333,#26);
#23=VECTOR('',#231,44.55);
#24=VECTOR('',#238,42.55);
#25=VECTOR('',#247,50.8);
#26=VECTOR('',#250,48.8);
#27=CYLINDRICAL_SURFACE('',#191,44.55);
#28=CYLINDRICAL_SURFACE('',#195,42.55);
#29=CYLINDRICAL_SURFACE('',#199,50.8);
#30=CYLINDRICAL_SURFACE('',#200,48.8);
#31=FACE_OUTER_BOUND('',#39,.T.);
#32=FACE_OUTER_BOUND('',#40,.T.);
#33=FACE_OUTER_BOUND('',#41,.T.);
#34=FACE_OUTER_BOUND('',#42,.T.);
#35=FACE_OUTER_BOUND('',#44,.T.);
#36=FACE_OUTER_BOUND('',#45,.T.);
#37=FACE_OUTER_BOUND('',#47,.T.);
#38=FACE_OUTER_BOUND('',#48,.T.);
#39=EDGE_LOOP('',(#105,#106,#107,#108,#109,#110,#111,#112));
#40=EDGE_LOOP('',(#113,#114,#115,#116,#117,#118,#119,#120));
#41=EDGE_LOOP('',(#121,#122,#123,#124,#125,#126));
#42=EDGE_LOOP('',(#127));
#43=EDGE_LOOP('',(#128));
#44=EDGE_LOOP('',(#129,#130,#131,#132,#133,#134));
#45=EDGE_LOOP('',(#135));
#46=EDGE_LOOP('',(#136));
#47=EDGE_LOOP('',(#137,#138,#139,#140,#141,#142));
#48=EDGE_LOOP('',(#143,#144,#145,#146,#147,#148));
#49=B_SPLINE_CURVE_WITH_KNOTS('',1,(#277,#278),.UNSPECIFIED.,.F.,.F.,(2,
2),(0.000181667028854603,2.26151033802847),.UNSPECIFIED.);
#50=B_SPLINE_CURVE_WITH_KNOTS('',1,(#308,#309),.UNSPECIFIED.,.F.,.F.,(2,
2),(-2.17248165019383,-0.000181667028847698),.UNSPECIFIED.);
#51=CIRCLE('',#179,48.8);
#52=CIRCLE('',#180,48.8);
#53=CIRCLE('',#181,48.8);
#54=CIRCLE('',#182,42.55);
#55=CIRCLE('',#183,42.55);
#56=CIRCLE('',#184,42.55);
#57=CIRCLE('',#185,44.55);
#58=CIRCLE('',#186,44.55);
#59=CIRCLE('',#187,50.8);
#60=CIRCLE('',#188,50.8);
#61=CIRCLE('',#189,50.8);
#62=CIRCLE('',#190,44.55);
#63=CIRCLE('',#192,44.55);
#64=CIRCLE('',#194,42.55);
#65=CIRCLE('',#197,50.8);
#66=CIRCLE('',#198,48.8);
#67=VERTEX_POINT('',#270);
#68=VERTEX_POINT('',#271);
#69=VERTEX_POINT('',#273);
#70=VERTEX_POINT('',#276);
#71=VERTEX_POINT('',#279);
#72=VERTEX_POINT('',#281);
#73=VERTEX_POINT('',#302);
#74=VERTEX_POINT('',#303);
#75=VERTEX_POINT('',#305);
#76=VERTEX_POINT('',#307);
#77=VERTEX_POINT('',#310);
#78=VERTEX_POINT('',#312);
#79=VERTEX_POINT('',#317);
#80=VERTEX_POINT('',#321);
#81=VERTEX_POINT('',#326);
#82=VERTEX_POINT('',#328);
#83=EDGE_CURVE('',#67,#68,#51,.T.);
#84=EDGE_CURVE('',#69,#67,#52,.T.);
#85=EDGE_CURVE('',#68,#69,#53,.T.);
#86=EDGE_CURVE('',#68,#70,#49,.T.);
#87=EDGE_CURVE('',#70,#71,#54,.T.);
#88=EDGE_CURVE('',#71,#72,#55,.T.);
#89=EDGE_CURVE('',#72,#70,#56,.T.);
#90=EDGE_CURVE('',#73,#74,#57,.T.);
#91=EDGE_CURVE('',#75,#73,#58,.T.);
#92=EDGE_CURVE('',#75,#76,#50,.T.);
#93=EDGE_CURVE('',#76,#77,#59,.T.);
#94=EDGE_CURVE('',#77,#78,#60,.T.);
#95=EDGE_CURVE('',#78,#76,#61,.T.);
#96=EDGE_CURVE('',#74,#75,#62,.T.);
#97=EDGE_CURVE('',#79,#79,#63,.T.);
#98=EDGE_CURVE('',#79,#74,#19,.T.);
#99=EDGE_CURVE('',#80,#80,#64,.T.);
#100=EDGE_CURVE('',#80,#71,#20,.T.);
#101=EDGE_CURVE('',#81,#81,#65,.T.);
#102=EDGE_CURVE('',#82,#82,#66,.T.);
#103=EDGE_CURVE('',#78,#81,#21,.T.);
#104=EDGE_CURVE('',#69,#82,#22,.T.);
#105=ORIENTED_EDGE('',*,*,#83,.F.);
#106=ORIENTED_EDGE('',*,*,#84,.F.);
#107=ORIENTED_EDGE('',*,*,#85,.F.);
#108=ORIENTED_EDGE('',*,*,#86,.T.);
#109=ORIENTED_EDGE('',*,*,#87,.T.);
#110=ORIENTED_EDGE('',*,*,#88,.T.);
#111=ORIENTED_EDGE('',*,*,#89,.T.);
#112=ORIENTED_EDGE('',*,*,#86,.F.);
#113=ORIENTED_EDGE('',*,*,#90,.F.);
#114=ORIENTED_EDGE('',*,*,#91,.F.);
#115=ORIENTED_EDGE('',*,*,#92,.T.);
#116=ORIENTED_EDGE('',*,*,#93,.T.);
#117=ORIENTED_EDGE('',*,*,#94,.T.);
#118=ORIENTED_EDGE('',*,*,#95,.T.);
#119=ORIENTED_EDGE('',*,*,#92,.F.);
#120=ORIENTED_EDGE('',*,*,#96,.F.);
#121=ORIENTED_EDGE('',*,*,#97,.F.);
#122=ORIENTED_EDGE('',*,*,#98,.T.);
#123=ORIENTED_EDGE('',*,*,#96,.T.);
#124=ORIENTED_EDGE('',*,*,#91,.T.);
#125=ORIENTED_EDGE('',*,*,#90,.T.);
#126=ORIENTED_EDGE('',*,*,#98,.F.);
#127=ORIENTED_EDGE('',*,*,#97,.T.);
#128=ORIENTED_EDGE('',*,*,#99,.F.);
#129=ORIENTED_EDGE('',*,*,#99,.T.);
#130=ORIENTED_EDGE('',*,*,#100,.T.);
#131=ORIENTED_EDGE('',*,*,#87,.F.);
#132=ORIENTED_EDGE('',*,*,#89,.F.);
#133=ORIENTED_EDGE('',*,*,#88,.F.);
#134=ORIENTED_EDGE('',*,*,#100,.F.);
#135=ORIENTED_EDGE('',*,*,#101,.F.);
#136=ORIENTED_EDGE('',*,*,#102,.T.);
#137=ORIENTED_EDGE('',*,*,#94,.F.);
#138=ORIENTED_EDGE('',*,*,#93,.F.);
#139=ORIENTED_EDGE('',*,*,#95,.F.);
#140=ORIENTED_EDGE('',*,*,#103,.T.);
#141=ORIENTED_EDGE('',*,*,#101,.T.);
#142=ORIENTED_EDGE('',*,*,#103,.F.);
#143=ORIENTED_EDGE('',*,*,#83,.T.);
#144=ORIENTED_EDGE('',*,*,#85,.T.);
#145=ORIENTED_EDGE('',*,*,#104,.T.);
#146=ORIENTED_EDGE('',*,*,#102,.F.);
#147=ORIENTED_EDGE('',*,*,#104,.F.);
#148=ORIENTED_EDGE('',*,*,#84,.T.);
#149=(
BOUNDED_SURFACE()
B_SPLINE_SURFACE(1,2,((#252,#253,#254,#255,#256,#257,#258,#259,#260),(#261,
#262,#263,#264,#265,#266,#267,#268,#269)),.UNSPECIFIED.,.F.,.T.,.F.)
B_SPLINE_SURFACE_WITH_KNOTS((2,2),(3,2,2,2,3),(-0.0566359301938113,2.31073429084955),
(-3.14159265358979,-1.5707963267949,0.,1.5707963267949,3.14159265358979),
 .UNSPECIFIED.)
GEOMETRIC_REPRESENTATION_ITEM()
RATIONAL_B_SPLINE_SURFACE(((1.,0.707106781186548,1.,0.707106781186548,1.,
0.707106781186548,1.,0.707106781186548,1.),(1.,0.707106781186548,1.,0.707106781186548,
1.,0.707106781186548,1.,0.707106781186548,1.)))
REPRESENTATION_ITEM('')
SURFACE()
);
#150=(
BOUNDED_SURFACE()
B_SPLINE_SURFACE(1,2,((#284,#285,#286,#287,#288,#289,#290,#291,#292),(#293,
#294,#295,#296,#297,#298,#299,#300,#301)),.UNSPECIFIED.,.F.,.T.,.F.)
B_SPLINE_SURFACE_WITH_KNOTS((2,2),(3,2,2,2,3),(-0.0566359301938114,2.22199026090247),
(-3.14159265358979,-1.5707963267949,0.,1.5707963267949,3.14159265358979),
 .UNSPECIFIED.)
GEOMETRIC_REPRESENTATION_ITEM()
RATIONAL_B_SPLINE_SURFACE(((1.,0.707106781186548,1.,0.707106781186548,1.,
0.707106781186548,1.,0.707106781186548,1.),(1.,0.707106781186548,1.,0.707106781186548,
1.,0.707106781186548,1.,0.707106781186548,1.)))
REPRESENTATION_ITEM('')
SURFACE()
);
#151=ADVANCED_FACE('',(#31),#149,.T.);
#152=ADVANCED_FACE('',(#32),#150,.F.);
#153=ADVANCED_FACE('',(#33),#27,.T.);
#154=ADVANCED_FACE('',(#34,#15),#17,.T.);
#155=ADVANCED_FACE('',(#35),#28,.F.);
#156=ADVANCED_FACE('',(#36,#16),#18,.T.);
#157=ADVANCED_FACE('',(#37),#29,.T.);
#158=ADVANCED_FACE('',(#38),#30,.F.);
#159=CLOSED_SHELL('',(#151,#152,#153,#154,#155,#156,#157,#158));
#160=DERIVED_UNIT_ELEMENT(#162,1.);
#161=DERIVED_UNIT_ELEMENT(#339,-3.);
#162=(
MASS_UNIT()
NAMED_UNIT(*)
SI_UNIT($,.GRAM.)
);
#163=DERIVED_UNIT((#160,#161));
#164=MEASURE_REPRESENTATION_ITEM('density measure',
POSITIVE_RATIO_MEASURE(1.),#163);
#165=PROPERTY_DEFINITION_REPRESENTATION(#170,#167);
#166=PROPERTY_DEFINITION_REPRESENTATION(#171,#168);
#167=REPRESENTATION('material name',(#169),#336);
#168=REPRESENTATION('density',(#164),#336);
#169=DESCRIPTIVE_REPRESENTATION_ITEM('\X2\4E00822C\X0\','\X2\4E00822C\X0\');
#170=PROPERTY_DEFINITION('material property','material name',#346);
#171=PROPERTY_DEFINITION('material property','density of part',#346);
#172=DATE_TIME_ROLE('creation_date');
#173=APPLIED_DATE_AND_TIME_ASSIGNMENT(#174,#172,(#346));
#174=DATE_AND_TIME(#175,#176);
#175=CALENDAR_DATE(2022,29,3);
#176=LOCAL_TIME(0,0,0.,#177);
#177=COORDINATED_UNIVERSAL_TIME_OFFSET(0,0,.BEHIND.);
#178=AXIS2_PLACEMENT_3D('placement',#251,#201,#202);
#179=AXIS2_PLACEMENT_3D('',#272,#203,#204);
#180=AXIS2_PLACEMENT_3D('',#274,#205,#206);
#181=AXIS2_PLACEMENT_3D('',#275,#207,#208);
#182=AXIS2_PLACEMENT_3D('',#280,#209,#210);
#183=AXIS2_PLACEMENT_3D('',#282,#211,#212);
#184=AXIS2_PLACEMENT_3D('',#283,#213,#214);
#185=AXIS2_PLACEMENT_3D('',#304,#215,#216);
#186=AXIS2_PLACEMENT_3D('',#306,#217,#218);
#187=AXIS2_PLACEMENT_3D('',#311,#219,#220);
#188=AXIS2_PLACEMENT_3D('',#313,#221,#222);
#189=AXIS2_PLACEMENT_3D('',#314,#223,#224);
#190=AXIS2_PLACEMENT_3D('',#315,#225,#226);
#191=AXIS2_PLACEMENT_3D('',#316,#227,#228);
#192=AXIS2_PLACEMENT_3D('',#318,#229,#230);
#193=AXIS2_PLACEMENT_3D('',#320,#232,#233);
#194=AXIS2_PLACEMENT_3D('',#322,#234,#235);
#195=AXIS2_PLACEMENT_3D('',#323,#236,#237);
#196=AXIS2_PLACEMENT_3D('',#325,#239,#240);
#197=AXIS2_PLACEMENT_3D('',#327,#241,#242);
#198=AXIS2_PLACEMENT_3D('',#329,#243,#244);
#199=AXIS2_PLACEMENT_3D('',#330,#245,#246);
#200=AXIS2_PLACEMENT_3D('',#332,#248,#249);
#201=DIRECTION('axis',(0.,0.,1.));
#202=DIRECTION('refdir',(1.,0.,0.));
#203=DIRECTION('center_axis',(1.,0.,0.));
#204=DIRECTION('ref_axis',(0.,0.,-1.));
#205=DIRECTION('center_axis',(1.,0.,0.));
#206=DIRECTION('ref_axis',(0.,0.,-1.));
#207=DIRECTION('center_axis',(1.,0.,0.));
#208=DIRECTION('ref_axis',(0.,0.,-1.));
#209=DIRECTION('center_axis',(1.,0.,-6.04090230958777E-17));
#210=DIRECTION('ref_axis',(-6.04090230958777E-17,0.,-1.));
#211=DIRECTION('center_axis',(1.,0.,-6.04090230958777E-17));
#212=DIRECTION('ref_axis',(-6.04090230958777E-17,0.,-1.));
#213=DIRECTION('center_axis',(1.,0.,-6.04090230958777E-17));
#214=DIRECTION('ref_axis',(-6.04090230958777E-17,0.,-1.));
#215=DIRECTION('center_axis',(1.,0.,-6.04090230958777E-17));
#216=DIRECTION('ref_axis',(-6.04090230958777E-17,0.,-1.));
#217=DIRECTION('center_axis',(1.,0.,-6.04090230958777E-17));
#218=DIRECTION('ref_axis',(-6.04090230958777E-17,0.,-1.));
#219=DIRECTION('center_axis',(1.,0.,0.));
#220=DIRECTION('ref_axis',(0.,0.,-1.));
#221=DIRECTION('center_axis',(1.,0.,0.));
#222=DIRECTION('ref_axis',(0.,0.,-1.));
#223=DIRECTION('center_axis',(1.,0.,0.));
#224=DIRECTION('ref_axis',(0.,0.,-1.));
#225=DIRECTION('center_axis',(1.,0.,-6.04090230958777E-17));
#226=DIRECTION('ref_axis',(-6.04090230958777E-17,0.,-1.));
#227=DIRECTION('center_axis',(1.,0.,-6.04090230958777E-17));
#228=DIRECTION('ref_axis',(-5.08328583991387E-17,0.,-1.));
#229=DIRECTION('center_axis',(1.,0.,-6.04090230958777E-17));
#230=DIRECTION('ref_axis',(-6.04090230958777E-17,0.,-1.));
#231=DIRECTION('',(-1.,0.,6.04090230958777E-17));
#232=DIRECTION('center_axis',(1.,0.,-6.04090230958777E-17));
#233=DIRECTION('ref_axis',(-6.04090230958777E-17,0.,-1.));
#234=DIRECTION('center_axis',(1.,0.,-6.04090230958777E-17));
#235=DIRECTION('ref_axis',(-6.04090230958777E-17,0.,-1.));
#236=DIRECTION('center_axis',(1.,0.,-6.04090230958777E-17));
#237=DIRECTION('ref_axis',(-5.08328583991387E-17,0.,-1.));
#238=DIRECTION('',(-1.,0.,6.04090230958777E-17));
#239=DIRECTION('center_axis',(-1.,0.,0.));
#240=DIRECTION('ref_axis',(0.,0.,1.));
#241=DIRECTION('center_axis',(1.,0.,0.));
#242=DIRECTION('ref_axis',(0.,0.,-1.));
#243=DIRECTION('center_axis',(1.,0.,0.));
#244=DIRECTION('ref_axis',(0.,0.,-1.));
#245=DIRECTION('center_axis',(1.,0.,0.));
#246=DIRECTION('ref_axis',(0.,0.,-1.));
#247=DIRECTION('',(-1.,0.,0.));
#248=DIRECTION('center_axis',(1.,0.,0.));
#249=DIRECTION('ref_axis',(0.,0.,-1.));
#250=DIRECTION('',(-1.,0.,0.));
#251=CARTESIAN_POINT('',(0.,0.,0.));
#252=CARTESIAN_POINT('Ctrl Pts',(2.23616660654173,48.9567841310541,-4.23147625268117E-12));
#253=CARTESIAN_POINT('Ctrl Pts',(4.99999999999973,48.9567841310583,48.7999999999958));
#254=CARTESIAN_POINT('Ctrl Pts',(4.99999999999997,4.23298489312643E-12,
48.8));
#255=CARTESIAN_POINT('Ctrl Pts',(5.00000000000021,-48.9567841310499,48.8000000000042));
#256=CARTESIAN_POINT('Ctrl Pts',(2.23616660654221,-48.9567841310541,4.23452947719704E-12));
#257=CARTESIAN_POINT('Ctrl Pts',(-0.527666786915783,-48.9567841310583,-48.7999999999958));
#258=CARTESIAN_POINT('Ctrl Pts',(-0.527666786916023,-4.23298489312643E-12,
-48.8));
#259=CARTESIAN_POINT('Ctrl Pts',(-0.527666786916263,48.9567841310499,-48.8000000000042));
#260=CARTESIAN_POINT('Ctrl Pts',(2.23616660654173,48.9567841310541,-4.23147625268117E-12));
#261=CARTESIAN_POINT('Ctrl Pts',(117.394448396537,42.4137335990352,-6.52209640870113));
#262=CARTESIAN_POINT('Ctrl Pts',(119.788896793075,42.4137335990388,35.7558071826014));
#263=CARTESIAN_POINT('Ctrl Pts',(119.788896793075,3.66846548850022E-12,
35.7558071826051));
#264=CARTESIAN_POINT('Ctrl Pts',(119.788896793076,-42.4137335990315,35.7558071826088));
#265=CARTESIAN_POINT('Ctrl Pts',(117.394448396538,-42.4137335990352,-6.52209640869379));
#266=CARTESIAN_POINT('Ctrl Pts',(115.,-42.4137335990388,-48.7999999999963));
#267=CARTESIAN_POINT('Ctrl Pts',(115.,-3.66846548850022E-12,-48.8));
#268=CARTESIAN_POINT('Ctrl Pts',(115.,42.4137335990315,-48.8000000000037));
#269=CARTESIAN_POINT('Ctrl Pts',(117.394448396537,42.4137335990352,-6.52209640870113));
#270=CARTESIAN_POINT('',(4.99999999999997,0.,-48.8));
#271=CARTESIAN_POINT('',(4.99999999999997,48.7997489506538,-0.156532275143437));
#272=CARTESIAN_POINT('Origin',(4.99999999999997,0.,0.));
#273=CARTESIAN_POINT('',(4.99999999999997,-5.97627637983908E-15,48.8));
#274=CARTESIAN_POINT('Origin',(4.99999999999997,0.,0.));
#275=CARTESIAN_POINT('Origin',(4.99999999999997,0.,0.));
#276=CARTESIAN_POINT('',(115.,42.5497811034902,-6.38648459646214));
#277=CARTESIAN_POINT('Ctrl Pts',(4.99999999999997,48.7997489506538,-0.156532275143443));
#278=CARTESIAN_POINT('Ctrl Pts',(115.,42.5497811034902,-6.38648459646215));
#279=CARTESIAN_POINT('',(115.,-5.21087213037199E-15,36.3));
#280=CARTESIAN_POINT('Origin',(115.,0.,-6.24999999999999));
#281=CARTESIAN_POINT('',(115.,0.,-48.8));
#282=CARTESIAN_POINT('Origin',(115.,0.,-6.24999999999999));
#283=CARTESIAN_POINT('Origin',(115.,0.,-6.24999999999999));
#284=CARTESIAN_POINT('Ctrl Pts',(2.12289474615445,-50.9632097101957,1.75949527161468E-12));
#285=CARTESIAN_POINT('Ctrl Pts',(-0.754210507691171,-50.9632097101974,-50.7999999999982));
#286=CARTESIAN_POINT('Ctrl Pts',(-0.754210507691272,-1.75998571103008E-12,
-50.8));
#287=CARTESIAN_POINT('Ctrl Pts',(-0.754210507691371,50.9632097101939,-50.8000000000018));
#288=CARTESIAN_POINT('Ctrl Pts',(2.12289474615425,50.9632097101957,-1.7604667723603E-12));
#289=CARTESIAN_POINT('Ctrl Pts',(4.99999999999986,50.9632097101974,50.7999999999982));
#290=CARTESIAN_POINT('Ctrl Pts',(4.99999999999996,1.75998571103008E-12,
50.8));
#291=CARTESIAN_POINT('Ctrl Pts',(5.00000000000006,-50.9632097101939,50.8000000000018));
#292=CARTESIAN_POINT('Ctrl Pts',(2.12289474615445,-50.9632097101957,1.75949527161468E-12));
#293=CARTESIAN_POINT('Ctrl Pts',(117.506995912239,-44.4073285978147,-6.53488589911648));
#294=CARTESIAN_POINT('Ctrl Pts',(115.,-44.4073285978163,-50.7999999999985));
#295=CARTESIAN_POINT('Ctrl Pts',(115.,-1.53342567027993E-12,-50.8));
#296=CARTESIAN_POINT('Ctrl Pts',(115.,44.4073285978132,-50.8000000000015));
#297=CARTESIAN_POINT('Ctrl Pts',(117.506995912239,44.4073285978147,-6.53488589911955));
#298=CARTESIAN_POINT('Ctrl Pts',(120.013991824477,44.4073285978163,37.7302282017624));
#299=CARTESIAN_POINT('Ctrl Pts',(120.013991824477,1.53342567027993E-12,
37.730228201764));
#300=CARTESIAN_POINT('Ctrl Pts',(120.013991824477,-44.4073285978132,37.7302282017655));
#301=CARTESIAN_POINT('Ctrl Pts',(117.506995912239,-44.4073285978147,-6.53488589911648));
#302=CARTESIAN_POINT('',(115.,0.,-50.8));
#303=CARTESIAN_POINT('',(115.,-5.45580149020146E-15,38.3));
#304=CARTESIAN_POINT('Origin',(115.,0.,-6.24999999999999));
#305=CARTESIAN_POINT('',(115.,-44.5497708145825,-6.39289985363476));
#306=CARTESIAN_POINT('Origin',(115.,0.,-6.24999999999999));
#307=CARTESIAN_POINT('',(4.99999999999996,-50.7997386617462,-0.162947532315295));
#308=CARTESIAN_POINT('Ctrl Pts',(115.,-44.5497708145826,-6.39289985363475));
#309=CARTESIAN_POINT('Ctrl Pts',(4.99999999999996,-50.7997386617462,-0.162947532315289));
#310=CARTESIAN_POINT('',(4.99999999999996,0.,-50.8));
#311=CARTESIAN_POINT('Origin',(4.99999999999996,0.,0.));
#312=CARTESIAN_POINT('',(4.99999999999996,-6.22120573966855E-15,50.8));
#313=CARTESIAN_POINT('Origin',(4.99999999999996,0.,0.));
#314=CARTESIAN_POINT('Origin',(4.99999999999996,0.,0.));
#315=CARTESIAN_POINT('Origin',(115.,0.,-6.24999999999999));
#316=CARTESIAN_POINT('Origin',(117.5,0.,-6.24999999999999));
#317=CARTESIAN_POINT('',(120.,-5.45580149020146E-15,38.3));
#318=CARTESIAN_POINT('Origin',(120.,0.,-6.24999999999999));
#319=CARTESIAN_POINT('',(117.5,-5.45580149020146E-15,38.3));
#320=CARTESIAN_POINT('Origin',(120.,0.,-48.8));
#321=CARTESIAN_POINT('',(120.,-5.21087213037199E-15,36.3));
#322=CARTESIAN_POINT('Origin',(120.,0.,-6.24999999999999));
#323=CARTESIAN_POINT('Origin',(117.5,0.,-6.24999999999999));
#324=CARTESIAN_POINT('',(117.5,-5.21087213037199E-15,36.3));
#325=CARTESIAN_POINT('Origin',(-3.55285887318462E-14,0.,-50.8));
#326=CARTESIAN_POINT('',(-3.52495810318487E-14,-6.22120573966855E-15,50.8));
#327=CARTESIAN_POINT('Origin',(-3.5527136788005E-14,0.,0.));
#328=CARTESIAN_POINT('',(-3.44169137633799E-14,-5.97627637983908E-15,48.8));
#329=CARTESIAN_POINT('Origin',(-3.46944695195361E-14,0.,0.));
#330=CARTESIAN_POINT('Origin',(2.49999999999996,0.,0.));
#331=CARTESIAN_POINT('',(2.49999999999996,-6.22120573966855E-15,50.8));
#332=CARTESIAN_POINT('Origin',(2.49999999999996,0.,0.));
#333=CARTESIAN_POINT('',(2.49999999999996,-5.97627637983908E-15,48.8));
#334=UNCERTAINTY_MEASURE_WITH_UNIT(LENGTH_MEASURE(0.01),#338,
'DISTANCE_ACCURACY_VALUE',
'Maximum model space distance between geometric entities at asserted c
onnectivities');
#335=UNCERTAINTY_MEASURE_WITH_UNIT(LENGTH_MEASURE(0.01),#338,
'DISTANCE_ACCURACY_VALUE',
'Maximum model space distance between geometric entities at asserted c
onnectivities');
#336=(
GEOMETRIC_REPRESENTATION_CONTEXT(3)
GLOBAL_UNCERTAINTY_ASSIGNED_CONTEXT((#334))
GLOBAL_UNIT_ASSIGNED_CONTEXT((#338,#340,#341))
REPRESENTATION_CONTEXT('','3D')
);
#337=(
GEOMETRIC_REPRESENTATION_CONTEXT(3)
GLOBAL_UNCERTAINTY_ASSIGNED_CONTEXT((#335))
GLOBAL_UNIT_ASSIGNED_CONTEXT((#338,#340,#341))
REPRESENTATION_CONTEXT('','3D')
);
#338=(
LENGTH_UNIT()
NAMED_UNIT(*)
SI_UNIT(.MILLI.,.METRE.)
);
#339=(
LENGTH_UNIT()
NAMED_UNIT(*)
SI_UNIT(.CENTI.,.METRE.)
);
#340=(
NAMED_UNIT(*)
PLANE_ANGLE_UNIT()
SI_UNIT($,.RADIAN.)
);
#341=(
NAMED_UNIT(*)
SI_UNIT($,.STERADIAN.)
SOLID_ANGLE_UNIT()
);
#342=SHAPE_DEFINITION_REPRESENTATION(#343,#344);
#343=PRODUCT_DEFINITION_SHAPE('',$,#346);
#344=SHAPE_REPRESENTATION('',(#178),#336);
#345=PRODUCT_DEFINITION_CONTEXT('part definition',#350,'design');
#346=PRODUCT_DEFINITION('T14 40\X\D735','T14 40\X\D735',#347,#345);
#347=PRODUCT_DEFINITION_FORMATION('',$,#352);
#348=PRODUCT_RELATED_PRODUCT_CATEGORY('T14 40\X\D735','T14 40\X\D735',(#352));
#349=APPLICATION_PROTOCOL_DEFINITION('international standard',
'automotive_design',2009,#350);
#350=APPLICATION_CONTEXT(
'Core Data for Automotive Mechanical Design Process');
#351=PRODUCT_CONTEXT('part definition',#350,'mechanical');
#352=PRODUCT('T14 40\X\D735','T14 40\X\D735',$,(#351));
#353=PRESENTATION_STYLE_ASSIGNMENT((#354));
#354=SURFACE_STYLE_USAGE(.BOTH.,#357);
#355=SURFACE_STYLE_RENDERING_WITH_PROPERTIES($,#361,(#356));
#356=SURFACE_STYLE_TRANSPARENT(0.);
#357=SURFACE_SIDE_STYLE('',(#358,#355));
#358=SURFACE_STYLE_FILL_AREA(#359);
#359=FILL_AREA_STYLE('',(#360));
#360=FILL_AREA_STYLE_COLOUR('',#361);
#361=COLOUR_RGB('',0.749019607843137,0.749019607843137,0.749019607843137);
ENDSEC;
END-ISO-10303-21;
