ISO-10303-21;
HEADER;
/* Generated by software containing ST-Developer
 * from STEP Tools, Inc. (www.steptools.com) 
 */

FILE_DESCRIPTION(
/* description */ (''),
/* implementation_level */ '2;1');

FILE_NAME(
/* name */ 
'\\\\Tske00\\w\\Work\\TOSTE\\\X2\7D99624B\X0\\\02_\X2\6EB663A5\X0\\\\X2\6EB663A530EC30B830E530FC30B530FC\X0\\\
\X2\30A830AD30BB30F330C830EC30B830E530FC30B530FC\X0\\\T14 35\X\D725.st
p',
/* time_stamp */ '2022-04-12T12:01:35+09:00',
/* author */ ('3dcad-eng'),
/* organization */ (''),
/* preprocessor_version */ 'ST-DEVELOPER v18.1',
/* originating_system */ 'Autodesk Inventor 2022',
/* authorisation */ '');

FILE_SCHEMA (('AUTOMOTIVE_DESIGN { 1 0 10303 214 3 1 1 }'));
ENDSEC;

DATA;
#10=MECHANICAL_DESIGN_GEOMETRIC_PRESENTATION_REPRESENTATION('',(#13),#337);
#11=SHAPE_REPRESENTATION_RELATIONSHIP('SRR','None',#344,#12);
#12=ADVANCED_BREP_SHAPE_REPRESENTATION('',(#14),#336);
#13=STYLED_ITEM('',(#353),#14);
#14=MANIFOLD_SOLID_BREP('\X2\30BD30EA30C330C9\X0\1',#159);
#15=FACE_BOUND('',#43,.T.);
#16=FACE_BOUND('',#46,.T.);
#17=PLANE('',#193);
#18=PLANE('',#196);
#19=LINE('',#319,#23);
#20=LINE('',#324,#24);
#21=LINE('',#331,#25);
#22=LINE('',#333,#26);
#23=VECTOR('',#231,31.75);
#24=VECTOR('',#238,29.75);
#25=VECTOR('',#247,44.55);
#26=VECTOR('',#250,42.55);
#27=CYLINDRICAL_SURFACE('',#191,31.75);
#28=CYLINDRICAL_SURFACE('',#195,29.75);
#29=CYLINDRICAL_SURFACE('',#199,44.55);
#30=CYLINDRICAL_SURFACE('',#200,42.55);
#31=FACE_OUTER_BOUND('',#39,.T.);
#32=FACE_OUTER_BOUND('',#40,.T.);
#33=FACE_OUTER_BOUND('',#41,.T.);
#34=FACE_OUTER_BOUND('',#42,.T.);
#35=FACE_OUTER_BOUND('',#44,.T.);
#36=FACE_OUTER_BOUND('',#45,.T.);
#37=FACE_OUTER_BOUND('',#47,.T.);
#38=FACE_OUTER_BOUND('',#48,.T.);
#39=EDGE_LOOP('',(#105,#106,#107,#108,#109,#110,#111,#112));
#40=EDGE_LOOP('',(#113,#114,#115,#116,#117,#118,#119,#120));
#41=EDGE_LOOP('',(#121,#122,#123,#124,#125,#126));
#42=EDGE_LOOP('',(#127));
#43=EDGE_LOOP('',(#128));
#44=EDGE_LOOP('',(#129,#130,#131,#132,#133,#134));
#45=EDGE_LOOP('',(#135));
#46=EDGE_LOOP('',(#136));
#47=EDGE_LOOP('',(#137,#138,#139,#140,#141,#142));
#48=EDGE_LOOP('',(#143,#144,#145,#146,#147,#148));
#49=B_SPLINE_CURVE_WITH_KNOTS('',1,(#277,#278),.UNSPECIFIED.,.F.,.F.,(2,
2),(0.00380380826073065,1.92975930647845),.UNSPECIFIED.);
#50=B_SPLINE_CURVE_WITH_KNOTS('',1,(#309,#310),.UNSPECIFIED.,.F.,.F.,(2,
2),(-1.84329665784914,-0.00380380826072563),.UNSPECIFIED.);
#51=CIRCLE('',#179,42.55);
#52=CIRCLE('',#180,42.55);
#53=CIRCLE('',#181,42.55);
#54=CIRCLE('',#182,29.75);
#55=CIRCLE('',#183,29.75);
#56=CIRCLE('',#184,29.75);
#57=CIRCLE('',#185,31.75);
#58=CIRCLE('',#186,31.75);
#59=CIRCLE('',#187,31.75);
#60=CIRCLE('',#188,44.55);
#61=CIRCLE('',#189,44.55);
#62=CIRCLE('',#190,44.55);
#63=CIRCLE('',#192,31.75);
#64=CIRCLE('',#194,29.75);
#65=CIRCLE('',#197,44.55);
#66=CIRCLE('',#198,42.55);
#67=VERTEX_POINT('',#270);
#68=VERTEX_POINT('',#271);
#69=VERTEX_POINT('',#273);
#70=VERTEX_POINT('',#276);
#71=VERTEX_POINT('',#279);
#72=VERTEX_POINT('',#281);
#73=VERTEX_POINT('',#302);
#74=VERTEX_POINT('',#303);
#75=VERTEX_POINT('',#305);
#76=VERTEX_POINT('',#308);
#77=VERTEX_POINT('',#311);
#78=VERTEX_POINT('',#313);
#79=VERTEX_POINT('',#317);
#80=VERTEX_POINT('',#321);
#81=VERTEX_POINT('',#326);
#82=VERTEX_POINT('',#328);
#83=EDGE_CURVE('',#67,#68,#51,.T.);
#84=EDGE_CURVE('',#69,#67,#52,.T.);
#85=EDGE_CURVE('',#68,#69,#53,.T.);
#86=EDGE_CURVE('',#68,#70,#49,.T.);
#87=EDGE_CURVE('',#70,#71,#54,.T.);
#88=EDGE_CURVE('',#71,#72,#55,.T.);
#89=EDGE_CURVE('',#72,#70,#56,.T.);
#90=EDGE_CURVE('',#73,#74,#57,.T.);
#91=EDGE_CURVE('',#75,#73,#58,.T.);
#92=EDGE_CURVE('',#74,#75,#59,.T.);
#93=EDGE_CURVE('',#74,#76,#50,.T.);
#94=EDGE_CURVE('',#76,#77,#60,.T.);
#95=EDGE_CURVE('',#77,#78,#61,.T.);
#96=EDGE_CURVE('',#78,#76,#62,.T.);
#97=EDGE_CURVE('',#79,#79,#63,.T.);
#98=EDGE_CURVE('',#79,#75,#19,.T.);
#99=EDGE_CURVE('',#80,#80,#64,.T.);
#100=EDGE_CURVE('',#80,#71,#20,.T.);
#101=EDGE_CURVE('',#81,#81,#65,.T.);
#102=EDGE_CURVE('',#82,#82,#66,.T.);
#103=EDGE_CURVE('',#77,#81,#21,.T.);
#104=EDGE_CURVE('',#69,#82,#22,.T.);
#105=ORIENTED_EDGE('',*,*,#83,.F.);
#106=ORIENTED_EDGE('',*,*,#84,.F.);
#107=ORIENTED_EDGE('',*,*,#85,.F.);
#108=ORIENTED_EDGE('',*,*,#86,.T.);
#109=ORIENTED_EDGE('',*,*,#87,.T.);
#110=ORIENTED_EDGE('',*,*,#88,.T.);
#111=ORIENTED_EDGE('',*,*,#89,.T.);
#112=ORIENTED_EDGE('',*,*,#86,.F.);
#113=ORIENTED_EDGE('',*,*,#90,.F.);
#114=ORIENTED_EDGE('',*,*,#91,.F.);
#115=ORIENTED_EDGE('',*,*,#92,.F.);
#116=ORIENTED_EDGE('',*,*,#93,.T.);
#117=ORIENTED_EDGE('',*,*,#94,.T.);
#118=ORIENTED_EDGE('',*,*,#95,.T.);
#119=ORIENTED_EDGE('',*,*,#96,.T.);
#120=ORIENTED_EDGE('',*,*,#93,.F.);
#121=ORIENTED_EDGE('',*,*,#97,.F.);
#122=ORIENTED_EDGE('',*,*,#98,.T.);
#123=ORIENTED_EDGE('',*,*,#91,.T.);
#124=ORIENTED_EDGE('',*,*,#90,.T.);
#125=ORIENTED_EDGE('',*,*,#92,.T.);
#126=ORIENTED_EDGE('',*,*,#98,.F.);
#127=ORIENTED_EDGE('',*,*,#97,.T.);
#128=ORIENTED_EDGE('',*,*,#99,.F.);
#129=ORIENTED_EDGE('',*,*,#99,.T.);
#130=ORIENTED_EDGE('',*,*,#100,.T.);
#131=ORIENTED_EDGE('',*,*,#87,.F.);
#132=ORIENTED_EDGE('',*,*,#89,.F.);
#133=ORIENTED_EDGE('',*,*,#88,.F.);
#134=ORIENTED_EDGE('',*,*,#100,.F.);
#135=ORIENTED_EDGE('',*,*,#101,.F.);
#136=ORIENTED_EDGE('',*,*,#102,.T.);
#137=ORIENTED_EDGE('',*,*,#96,.F.);
#138=ORIENTED_EDGE('',*,*,#95,.F.);
#139=ORIENTED_EDGE('',*,*,#103,.T.);
#140=ORIENTED_EDGE('',*,*,#101,.T.);
#141=ORIENTED_EDGE('',*,*,#103,.F.);
#142=ORIENTED_EDGE('',*,*,#94,.F.);
#143=ORIENTED_EDGE('',*,*,#83,.T.);
#144=ORIENTED_EDGE('',*,*,#85,.T.);
#145=ORIENTED_EDGE('',*,*,#104,.T.);
#146=ORIENTED_EDGE('',*,*,#102,.F.);
#147=ORIENTED_EDGE('',*,*,#104,.F.);
#148=ORIENTED_EDGE('',*,*,#84,.T.);
#149=(
BOUNDED_SURFACE()
B_SPLINE_SURFACE(1,2,((#252,#253,#254,#255,#256,#257,#258,#259,#260),(#261,
#262,#263,#264,#265,#266,#267,#268,#269)),.UNSPECIFIED.,.F.,.T.,.F.)
B_SPLINE_SURFACE_WITH_KNOTS((2,2),(3,2,2,2,3),(-0.156101187101673,2.03624219767746),
(-3.14159265358979,-1.5707963267949,0.,1.5707963267949,3.14159265358979),
 .UNSPECIFIED.)
GEOMETRIC_REPRESENTATION_ITEM()
RATIONAL_B_SPLINE_SURFACE(((1.,0.707106781186548,1.,0.707106781186548,1.,
0.707106781186548,1.,0.707106781186548,1.),(1.,0.707106781186548,1.,0.707106781186548,
1.,0.707106781186548,1.,0.707106781186548,1.)))
REPRESENTATION_ITEM('')
SURFACE()
);
#150=(
BOUNDED_SURFACE()
B_SPLINE_SURFACE(1,2,((#284,#285,#286,#287,#288,#289,#290,#291,#292),(#293,
#294,#295,#296,#297,#298,#299,#300,#301)),.UNSPECIFIED.,.F.,.T.,.F.)
B_SPLINE_SURFACE_WITH_KNOTS((2,2),(3,2,2,2,3),(-0.156101187101673,1.95183631617013),
(-3.14159265358979,-1.5707963267949,0.,1.5707963267949,3.14159265358979),
 .UNSPECIFIED.)
GEOMETRIC_REPRESENTATION_ITEM()
RATIONAL_B_SPLINE_SURFACE(((1.,0.707106781186548,1.,0.707106781186548,1.,
0.707106781186548,1.,0.707106781186548,1.),(1.,0.707106781186548,1.,0.707106781186548,
1.,0.707106781186548,1.,0.707106781186548,1.)))
REPRESENTATION_ITEM('')
SURFACE()
);
#151=ADVANCED_FACE('',(#31),#149,.T.);
#152=ADVANCED_FACE('',(#32),#150,.F.);
#153=ADVANCED_FACE('',(#33),#27,.T.);
#154=ADVANCED_FACE('',(#34,#15),#17,.T.);
#155=ADVANCED_FACE('',(#35),#28,.F.);
#156=ADVANCED_FACE('',(#36,#16),#18,.T.);
#157=ADVANCED_FACE('',(#37),#29,.T.);
#158=ADVANCED_FACE('',(#38),#30,.F.);
#159=CLOSED_SHELL('',(#151,#152,#153,#154,#155,#156,#157,#158));
#160=DERIVED_UNIT_ELEMENT(#162,1.);
#161=DERIVED_UNIT_ELEMENT(#339,-3.);
#162=(
MASS_UNIT()
NAMED_UNIT(*)
SI_UNIT($,.GRAM.)
);
#163=DERIVED_UNIT((#160,#161));
#164=MEASURE_REPRESENTATION_ITEM('density measure',
POSITIVE_RATIO_MEASURE(1.),#163);
#165=PROPERTY_DEFINITION_REPRESENTATION(#170,#167);
#166=PROPERTY_DEFINITION_REPRESENTATION(#171,#168);
#167=REPRESENTATION('material name',(#169),#336);
#168=REPRESENTATION('density',(#164),#336);
#169=DESCRIPTIVE_REPRESENTATION_ITEM('\X2\4E00822C\X0\','\X2\4E00822C\X0\');
#170=PROPERTY_DEFINITION('material property','material name',#346);
#171=PROPERTY_DEFINITION('material property','density of part',#346);
#172=DATE_TIME_ROLE('creation_date');
#173=APPLIED_DATE_AND_TIME_ASSIGNMENT(#174,#172,(#346));
#174=DATE_AND_TIME(#175,#176);
#175=CALENDAR_DATE(2022,29,3);
#176=LOCAL_TIME(0,0,0.,#177);
#177=COORDINATED_UNIVERSAL_TIME_OFFSET(0,0,.BEHIND.);
#178=AXIS2_PLACEMENT_3D('placement',#251,#201,#202);
#179=AXIS2_PLACEMENT_3D('',#272,#203,#204);
#180=AXIS2_PLACEMENT_3D('',#274,#205,#206);
#181=AXIS2_PLACEMENT_3D('',#275,#207,#208);
#182=AXIS2_PLACEMENT_3D('',#280,#209,#210);
#183=AXIS2_PLACEMENT_3D('',#282,#211,#212);
#184=AXIS2_PLACEMENT_3D('',#283,#213,#214);
#185=AXIS2_PLACEMENT_3D('',#304,#215,#216);
#186=AXIS2_PLACEMENT_3D('',#306,#217,#218);
#187=AXIS2_PLACEMENT_3D('',#307,#219,#220);
#188=AXIS2_PLACEMENT_3D('',#312,#221,#222);
#189=AXIS2_PLACEMENT_3D('',#314,#223,#224);
#190=AXIS2_PLACEMENT_3D('',#315,#225,#226);
#191=AXIS2_PLACEMENT_3D('',#316,#227,#228);
#192=AXIS2_PLACEMENT_3D('',#318,#229,#230);
#193=AXIS2_PLACEMENT_3D('',#320,#232,#233);
#194=AXIS2_PLACEMENT_3D('',#322,#234,#235);
#195=AXIS2_PLACEMENT_3D('',#323,#236,#237);
#196=AXIS2_PLACEMENT_3D('',#325,#239,#240);
#197=AXIS2_PLACEMENT_3D('',#327,#241,#242);
#198=AXIS2_PLACEMENT_3D('',#329,#243,#244);
#199=AXIS2_PLACEMENT_3D('',#330,#245,#246);
#200=AXIS2_PLACEMENT_3D('',#332,#248,#249);
#201=DIRECTION('axis',(0.,0.,1.));
#202=DIRECTION('refdir',(1.,0.,0.));
#203=DIRECTION('center_axis',(1.,0.,0.));
#204=DIRECTION('ref_axis',(0.,0.,-1.));
#205=DIRECTION('center_axis',(1.,0.,0.));
#206=DIRECTION('ref_axis',(0.,0.,-1.));
#207=DIRECTION('center_axis',(1.,0.,0.));
#208=DIRECTION('ref_axis',(0.,0.,-1.));
#209=DIRECTION('center_axis',(1.,0.,-1.20818046191755E-16));
#210=DIRECTION('ref_axis',(-1.20818046191755E-16,0.,-1.));
#211=DIRECTION('center_axis',(1.,0.,-1.20818046191755E-16));
#212=DIRECTION('ref_axis',(-1.20818046191755E-16,0.,-1.));
#213=DIRECTION('center_axis',(1.,0.,-1.20818046191755E-16));
#214=DIRECTION('ref_axis',(-1.20818046191755E-16,0.,-1.));
#215=DIRECTION('center_axis',(1.,0.,-1.20818046191755E-16));
#216=DIRECTION('ref_axis',(-1.20818046191755E-16,0.,-1.));
#217=DIRECTION('center_axis',(1.,0.,-1.20818046191755E-16));
#218=DIRECTION('ref_axis',(-1.20818046191755E-16,0.,-1.));
#219=DIRECTION('center_axis',(1.,0.,-1.20818046191755E-16));
#220=DIRECTION('ref_axis',(-1.20818046191755E-16,0.,-1.));
#221=DIRECTION('center_axis',(1.,0.,0.));
#222=DIRECTION('ref_axis',(0.,0.,-1.));
#223=DIRECTION('center_axis',(1.,0.,0.));
#224=DIRECTION('ref_axis',(0.,0.,-1.));
#225=DIRECTION('center_axis',(1.,0.,0.));
#226=DIRECTION('ref_axis',(0.,0.,-1.));
#227=DIRECTION('center_axis',(1.,0.,-1.20818046191755E-16));
#228=DIRECTION('ref_axis',(-1.0785386508733E-16,0.,-1.));
#229=DIRECTION('center_axis',(1.,0.,-1.20818046191755E-16));
#230=DIRECTION('ref_axis',(-1.20818046191755E-16,0.,-1.));
#231=DIRECTION('',(-1.,0.,1.20818046191755E-16));
#232=DIRECTION('center_axis',(1.,0.,-1.20818046191755E-16));
#233=DIRECTION('ref_axis',(-1.20818046191755E-16,0.,-1.));
#234=DIRECTION('center_axis',(1.,0.,-1.20818046191755E-16));
#235=DIRECTION('ref_axis',(-1.20818046191755E-16,0.,-1.));
#236=DIRECTION('center_axis',(1.,0.,-1.20818046191755E-16));
#237=DIRECTION('ref_axis',(-1.0785386508733E-16,0.,-1.));
#238=DIRECTION('',(-1.,0.,1.20818046191755E-16));
#239=DIRECTION('center_axis',(-1.,0.,0.));
#240=DIRECTION('ref_axis',(0.,0.,1.));
#241=DIRECTION('center_axis',(1.,0.,0.));
#242=DIRECTION('ref_axis',(0.,0.,-1.));
#243=DIRECTION('center_axis',(1.,0.,0.));
#244=DIRECTION('ref_axis',(0.,0.,-1.));
#245=DIRECTION('center_axis',(1.,0.,0.));
#246=DIRECTION('ref_axis',(0.,0.,-1.));
#247=DIRECTION('',(-1.,0.,0.));
#248=DIRECTION('center_axis',(1.,0.,0.));
#249=DIRECTION('ref_axis',(0.,0.,-1.));
#250=DIRECTION('',(-1.,0.,0.));
#251=CARTESIAN_POINT('',(0.,0.,0.));
#252=CARTESIAN_POINT('Ctrl Pts',(-1.64210551117636,43.599786795811,-9.80743264378248E-13));
#253=CARTESIAN_POINT('Ctrl Pts',(4.99999999999978,43.599786795812,42.549999999999));
#254=CARTESIAN_POINT('Ctrl Pts',(4.99999999999994,9.8327025819373E-13,42.55));
#255=CARTESIAN_POINT('Ctrl Pts',(5.00000000000009,-43.59978679581,42.550000000001));
#256=CARTESIAN_POINT('Ctrl Pts',(-1.64210551117605,-43.599786795811,1.00433214182789E-12));
#257=CARTESIAN_POINT('Ctrl Pts',(-8.2842110223522,-43.599786795812,-42.549999999999));
#258=CARTESIAN_POINT('Ctrl Pts',(-8.28421102235235,-1.00103382658773E-12,
-42.55));
#259=CARTESIAN_POINT('Ctrl Pts',(-8.2842110223525,43.59978679581,-42.550000000001));
#260=CARTESIAN_POINT('Ctrl Pts',(-1.64210551117636,43.599786795811,-9.80743264378248E-13));
#261=CARTESIAN_POINT('Ctrl Pts',(89.4230675650627,29.0336855528299,-14.2153816208208));
#262=CARTESIAN_POINT('Ctrl Pts',(93.8461351301255,29.0336855528305,14.1192367583591));
#263=CARTESIAN_POINT('Ctrl Pts',(93.8461351301256,6.48745208078237E-13,
14.1192367583598));
#264=CARTESIAN_POINT('Ctrl Pts',(93.8461351301257,-29.0336855528292,14.1192367583604));
#265=CARTESIAN_POINT('Ctrl Pts',(89.4230675650629,-29.0336855528299,-14.2153816208195));
#266=CARTESIAN_POINT('Ctrl Pts',(85.0000000000001,-29.0336855528305,-42.5499999999993));
#267=CARTESIAN_POINT('Ctrl Pts',(85.,-6.66508776472239E-13,-42.55));
#268=CARTESIAN_POINT('Ctrl Pts',(84.9999999999999,29.0336855528292,-42.5500000000007));
#269=CARTESIAN_POINT('Ctrl Pts',(89.4230675650627,29.0336855528299,-14.2153816208208));
#270=CARTESIAN_POINT('',(4.99999999999998,0.,-42.55));
#271=CARTESIAN_POINT('',(4.99999999999998,42.5373654762868,-1.03684055515013));
#272=CARTESIAN_POINT('Origin',(4.99999999999998,0.,0.));
#273=CARTESIAN_POINT('',(4.99999999999998,-5.21087213037199E-15,42.55));
#274=CARTESIAN_POINT('Origin',(4.99999999999998,0.,0.));
#275=CARTESIAN_POINT('Origin',(4.99999999999998,0.,0.));
#276=CARTESIAN_POINT('',(85.,29.741166226076,-13.5249355232836));
#277=CARTESIAN_POINT('Ctrl Pts',(4.99999999999998,42.5373654762868,-1.03684055515014));
#278=CARTESIAN_POINT('Ctrl Pts',(85.,29.741166226076,-13.5249355232836));
#279=CARTESIAN_POINT('',(85.,-3.64332422746338E-15,16.95));
#280=CARTESIAN_POINT('Origin',(85.,0.,-12.8));
#281=CARTESIAN_POINT('',(85.,0.,-42.55));
#282=CARTESIAN_POINT('Origin',(85.,0.,-12.8));
#283=CARTESIAN_POINT('Origin',(85.,0.,-12.8));
#284=CARTESIAN_POINT('Ctrl Pts',(-1.95430788537949,45.6491304759901,4.21610555425041E-13));
#285=CARTESIAN_POINT('Ctrl Pts',(5.,45.6491304759897,44.5500000000004));
#286=CARTESIAN_POINT('Ctrl Pts',(4.99999999999994,-4.12916150783444E-13,
44.55));
#287=CARTESIAN_POINT('Ctrl Pts',(4.99999999999987,-45.6491304759905,44.5499999999996));
#288=CARTESIAN_POINT('Ctrl Pts',(-1.95430788537962,-45.6491304759901,-4.0467629247587E-13));
#289=CARTESIAN_POINT('Ctrl Pts',(-8.9086157707591,-45.6491304759897,-44.5500000000004));
#290=CARTESIAN_POINT('Ctrl Pts',(-8.90861577075904,4.12916150783444E-13,
-44.55));
#291=CARTESIAN_POINT('Ctrl Pts',(-8.90861577075898,45.6491304759905,-44.5499999999996));
#292=CARTESIAN_POINT('Ctrl Pts',(-1.95430788537949,45.6491304759901,4.21610555425041E-13));
#293=CARTESIAN_POINT('Ctrl Pts',(89.7204166450671,30.9855299597428,-14.3105333264212));
#294=CARTESIAN_POINT('Ctrl Pts',(94.4408332901342,30.9855299597425,15.9289333471573));
#295=CARTESIAN_POINT('Ctrl Pts',(94.4408332901341,-2.83360813503685E-13,
15.9289333471571));
#296=CARTESIAN_POINT('Ctrl Pts',(94.440833290134,-30.9855299597431,15.9289333471568));
#297=CARTESIAN_POINT('Ctrl Pts',(89.720416645067,-30.9855299597428,-14.3105333264218));
#298=CARTESIAN_POINT('Ctrl Pts',(84.9999999999999,-30.9855299597425,-44.5500000000003));
#299=CARTESIAN_POINT('Ctrl Pts',(85.,2.83360813503685E-13,-44.55));
#300=CARTESIAN_POINT('Ctrl Pts',(85.0000000000001,30.9855299597431,-44.5499999999997));
#301=CARTESIAN_POINT('Ctrl Pts',(89.7204166450671,30.9855299597428,-14.3105333264212));
#302=CARTESIAN_POINT('',(85.,0.,-44.55));
#303=CARTESIAN_POINT('',(85.,31.7405723589214,-13.5736706845117));
#304=CARTESIAN_POINT('Origin',(85.,0.,-12.8));
#305=CARTESIAN_POINT('',(85.,-3.88825358729284E-15,18.95));
#306=CARTESIAN_POINT('Origin',(85.,0.,-12.8));
#307=CARTESIAN_POINT('Origin',(85.,0.,-12.8));
#308=CARTESIAN_POINT('',(4.99999999999998,44.5367716091323,-1.08557571637784));
#309=CARTESIAN_POINT('Ctrl Pts',(85.,31.7405723589214,-13.5736706845117));
#310=CARTESIAN_POINT('Ctrl Pts',(4.99999999999998,44.5367716091323,-1.08557571637784));
#311=CARTESIAN_POINT('',(4.99999999999998,-5.45580149020146E-15,44.55));
#312=CARTESIAN_POINT('Origin',(4.99999999999998,0.,0.));
#313=CARTESIAN_POINT('',(4.99999999999998,0.,-44.55));
#314=CARTESIAN_POINT('Origin',(4.99999999999998,0.,0.));
#315=CARTESIAN_POINT('Origin',(4.99999999999998,0.,0.));
#316=CARTESIAN_POINT('Origin',(87.5,0.,-12.8));
#317=CARTESIAN_POINT('',(90.,-3.88825358729284E-15,18.95));
#318=CARTESIAN_POINT('Origin',(90.,0.,-12.8));
#319=CARTESIAN_POINT('',(87.5,-3.88825358729284E-15,18.95));
#320=CARTESIAN_POINT('Origin',(90.,0.,-42.55));
#321=CARTESIAN_POINT('',(90.,-3.64332422746338E-15,16.95));
#322=CARTESIAN_POINT('Origin',(90.,0.,-12.8));
#323=CARTESIAN_POINT('Origin',(87.5,0.,-12.8));
#324=CARTESIAN_POINT('',(87.5,-3.64332422746338E-15,16.95));
#325=CARTESIAN_POINT('Origin',(-2.27541492230991E-14,0.,-44.55));
#326=CARTESIAN_POINT('',(-2.27595720048157E-14,-5.45580149020146E-15,44.55));
#327=CARTESIAN_POINT('Origin',(-2.27595720048157E-14,0.,0.));
#328=CARTESIAN_POINT('',(-2.22044604925031E-14,-5.21087213037199E-15,42.55));
#329=CARTESIAN_POINT('Origin',(-2.22044604925031E-14,0.,0.));
#330=CARTESIAN_POINT('Origin',(2.49999999999998,0.,0.));
#331=CARTESIAN_POINT('',(2.49999999999998,-5.45580149020146E-15,44.55));
#332=CARTESIAN_POINT('Origin',(2.49999999999998,0.,0.));
#333=CARTESIAN_POINT('',(2.49999999999998,-5.21087213037199E-15,42.55));
#334=UNCERTAINTY_MEASURE_WITH_UNIT(LENGTH_MEASURE(0.01),#338,
'DISTANCE_ACCURACY_VALUE',
'Maximum model space distance between geometric entities at asserted c
onnectivities');
#335=UNCERTAINTY_MEASURE_WITH_UNIT(LENGTH_MEASURE(0.01),#338,
'DISTANCE_ACCURACY_VALUE',
'Maximum model space distance between geometric entities at asserted c
onnectivities');
#336=(
GEOMETRIC_REPRESENTATION_CONTEXT(3)
GLOBAL_UNCERTAINTY_ASSIGNED_CONTEXT((#334))
GLOBAL_UNIT_ASSIGNED_CONTEXT((#338,#340,#341))
REPRESENTATION_CONTEXT('','3D')
);
#337=(
GEOMETRIC_REPRESENTATION_CONTEXT(3)
GLOBAL_UNCERTAINTY_ASSIGNED_CONTEXT((#335))
GLOBAL_UNIT_ASSIGNED_CONTEXT((#338,#340,#341))
REPRESENTATION_CONTEXT('','3D')
);
#338=(
LENGTH_UNIT()
NAMED_UNIT(*)
SI_UNIT(.MILLI.,.METRE.)
);
#339=(
LENGTH_UNIT()
NAMED_UNIT(*)
SI_UNIT(.CENTI.,.METRE.)
);
#340=(
NAMED_UNIT(*)
PLANE_ANGLE_UNIT()
SI_UNIT($,.RADIAN.)
);
#341=(
NAMED_UNIT(*)
SI_UNIT($,.STERADIAN.)
SOLID_ANGLE_UNIT()
);
#342=SHAPE_DEFINITION_REPRESENTATION(#343,#344);
#343=PRODUCT_DEFINITION_SHAPE('',$,#346);
#344=SHAPE_REPRESENTATION('',(#178),#336);
#345=PRODUCT_DEFINITION_CONTEXT('part definition',#350,'design');
#346=PRODUCT_DEFINITION('T14 35\X\D725','T14 35\X\D725',#347,#345);
#347=PRODUCT_DEFINITION_FORMATION('',$,#352);
#348=PRODUCT_RELATED_PRODUCT_CATEGORY('T14 35\X\D725','T14 35\X\D725',(#352));
#349=APPLICATION_PROTOCOL_DEFINITION('international standard',
'automotive_design',2009,#350);
#350=APPLICATION_CONTEXT(
'Core Data for Automotive Mechanical Design Process');
#351=PRODUCT_CONTEXT('part definition',#350,'mechanical');
#352=PRODUCT('T14 35\X\D725','T14 35\X\D725',$,(#351));
#353=PRESENTATION_STYLE_ASSIGNMENT((#354));
#354=SURFACE_STYLE_USAGE(.BOTH.,#357);
#355=SURFACE_STYLE_RENDERING_WITH_PROPERTIES($,#361,(#356));
#356=SURFACE_STYLE_TRANSPARENT(0.);
#357=SURFACE_SIDE_STYLE('',(#358,#355));
#358=SURFACE_STYLE_FILL_AREA(#359);
#359=FILL_AREA_STYLE('',(#360));
#360=FILL_AREA_STYLE_COLOUR('',#361);
#361=COLOUR_RGB('',0.749019607843137,0.749019607843137,0.749019607843137);
ENDSEC;
END-ISO-10303-21;
