ISO-10303-21;
HEADER;
/* Generated by software containing ST-Developer
 * from STEP Tools, Inc. (www.steptools.com) 
 */

FILE_DESCRIPTION(
/* description */ (''),
/* implementation_level */ '2;1');

FILE_NAME(
/* name */ 
'\\\\Tske00\\w\\Work\\TOSTE\\\X2\7D99624B\X0\\\02_\X2\6EB663A5\X0\\\\X2\6EB663A530EC30B830E530FC30B530FC\X0\\\
\X2\30A830AD30BB30F330C830EC30B830E530FC30B530FC\X0\\\T14 35\X\D720.st
p',
/* time_stamp */ '2022-04-12T12:01:36+09:00',
/* author */ ('3dcad-eng'),
/* organization */ (''),
/* preprocessor_version */ 'ST-DEVELOPER v18.1',
/* originating_system */ 'Autodesk Inventor 2022',
/* authorisation */ '');

FILE_SCHEMA (('AUTOMOTIVE_DESIGN { 1 0 10303 214 3 1 1 }'));
ENDSEC;

DATA;
#10=MECHANICAL_DESIGN_GEOMETRIC_PRESENTATION_REPRESENTATION('',(#13),#357);
#11=SHAPE_REPRESENTATION_RELATIONSHIP('SRR','None',#364,#12);
#12=ADVANCED_BREP_SHAPE_REPRESENTATION('',(#14),#356);
#13=STYLED_ITEM('',(#373),#14);
#14=MANIFOLD_SOLID_BREP('\X2\30BD30EA30C330C9\X0\1',#169);
#15=FACE_BOUND('',#43,.T.);
#16=FACE_BOUND('',#46,.T.);
#17=PLANE('',#205);
#18=PLANE('',#208);
#19=LINE('',#339,#23);
#20=LINE('',#344,#24);
#21=LINE('',#351,#25);
#22=LINE('',#353,#26);
#23=VECTOR('',#247,25.4);
#24=VECTOR('',#254,23.9);
#25=VECTOR('',#263,44.55);
#26=VECTOR('',#266,42.55);
#27=CYLINDRICAL_SURFACE('',#203,25.4);
#28=CYLINDRICAL_SURFACE('',#207,23.9);
#29=CYLINDRICAL_SURFACE('',#211,44.55);
#30=CYLINDRICAL_SURFACE('',#212,42.55);
#31=FACE_OUTER_BOUND('',#39,.T.);
#32=FACE_OUTER_BOUND('',#40,.T.);
#33=FACE_OUTER_BOUND('',#41,.T.);
#34=FACE_OUTER_BOUND('',#42,.T.);
#35=FACE_OUTER_BOUND('',#44,.T.);
#36=FACE_OUTER_BOUND('',#45,.T.);
#37=FACE_OUTER_BOUND('',#47,.T.);
#38=FACE_OUTER_BOUND('',#48,.T.);
#39=EDGE_LOOP('',(#111,#112,#113,#114,#115,#116,#117,#118,#119,#120));
#40=EDGE_LOOP('',(#121,#122,#123,#124,#125,#126,#127,#128));
#41=EDGE_LOOP('',(#129,#130,#131,#132,#133,#134));
#42=EDGE_LOOP('',(#135));
#43=EDGE_LOOP('',(#136));
#44=EDGE_LOOP('',(#137,#138,#139,#140,#141,#142,#143));
#45=EDGE_LOOP('',(#144));
#46=EDGE_LOOP('',(#145));
#47=EDGE_LOOP('',(#146,#147,#148,#149,#150,#151));
#48=EDGE_LOOP('',(#152,#153,#154,#155,#156,#157,#158));
#49=B_SPLINE_CURVE_WITH_KNOTS('',1,(#292,#293),.UNSPECIFIED.,.F.,.F.,(2,
2),(0.0114404622362496,1.98624146821974),.UNSPECIFIED.);
#50=B_SPLINE_CURVE_WITH_KNOTS('',1,(#329,#330),.UNSPECIFIED.,.F.,.F.,(2,
2),(-1.89999985669648,-0.0117026954559399),.UNSPECIFIED.);
#51=CIRCLE('',#189,42.55);
#52=CIRCLE('',#190,42.55);
#53=CIRCLE('',#191,23.9);
#54=CIRCLE('',#192,23.9);
#55=CIRCLE('',#193,23.9);
#56=CIRCLE('',#194,23.9);
#57=CIRCLE('',#195,42.55);
#58=CIRCLE('',#196,42.55);
#59=CIRCLE('',#197,25.4);
#60=CIRCLE('',#198,25.4);
#61=CIRCLE('',#199,25.4);
#62=CIRCLE('',#200,44.55);
#63=CIRCLE('',#201,44.55);
#64=CIRCLE('',#202,44.55);
#65=CIRCLE('',#204,25.4);
#66=CIRCLE('',#206,23.9);
#67=CIRCLE('',#209,44.55);
#68=CIRCLE('',#210,42.55);
#69=VERTEX_POINT('',#286);
#70=VERTEX_POINT('',#287);
#71=VERTEX_POINT('',#289);
#72=VERTEX_POINT('',#291);
#73=VERTEX_POINT('',#294);
#74=VERTEX_POINT('',#296);
#75=VERTEX_POINT('',#298);
#76=VERTEX_POINT('',#301);
#77=VERTEX_POINT('',#322);
#78=VERTEX_POINT('',#323);
#79=VERTEX_POINT('',#325);
#80=VERTEX_POINT('',#328);
#81=VERTEX_POINT('',#331);
#82=VERTEX_POINT('',#333);
#83=VERTEX_POINT('',#337);
#84=VERTEX_POINT('',#341);
#85=VERTEX_POINT('',#346);
#86=VERTEX_POINT('',#348);
#87=EDGE_CURVE('',#69,#70,#51,.T.);
#88=EDGE_CURVE('',#71,#69,#52,.T.);
#89=EDGE_CURVE('',#71,#72,#49,.T.);
#90=EDGE_CURVE('',#72,#73,#53,.T.);
#91=EDGE_CURVE('',#73,#74,#54,.T.);
#92=EDGE_CURVE('',#74,#75,#55,.T.);
#93=EDGE_CURVE('',#75,#72,#56,.T.);
#94=EDGE_CURVE('',#76,#71,#57,.T.);
#95=EDGE_CURVE('',#70,#76,#58,.T.);
#96=EDGE_CURVE('',#77,#78,#59,.T.);
#97=EDGE_CURVE('',#79,#77,#60,.T.);
#98=EDGE_CURVE('',#78,#79,#61,.T.);
#99=EDGE_CURVE('',#78,#80,#50,.T.);
#100=EDGE_CURVE('',#80,#81,#62,.T.);
#101=EDGE_CURVE('',#81,#82,#63,.T.);
#102=EDGE_CURVE('',#82,#80,#64,.T.);
#103=EDGE_CURVE('',#83,#83,#65,.T.);
#104=EDGE_CURVE('',#83,#79,#19,.T.);
#105=EDGE_CURVE('',#84,#84,#66,.T.);
#106=EDGE_CURVE('',#84,#75,#20,.T.);
#107=EDGE_CURVE('',#85,#85,#67,.T.);
#108=EDGE_CURVE('',#86,#86,#68,.T.);
#109=EDGE_CURVE('',#81,#85,#21,.T.);
#110=EDGE_CURVE('',#76,#86,#22,.T.);
#111=ORIENTED_EDGE('',*,*,#87,.F.);
#112=ORIENTED_EDGE('',*,*,#88,.F.);
#113=ORIENTED_EDGE('',*,*,#89,.T.);
#114=ORIENTED_EDGE('',*,*,#90,.T.);
#115=ORIENTED_EDGE('',*,*,#91,.T.);
#116=ORIENTED_EDGE('',*,*,#92,.T.);
#117=ORIENTED_EDGE('',*,*,#93,.T.);
#118=ORIENTED_EDGE('',*,*,#89,.F.);
#119=ORIENTED_EDGE('',*,*,#94,.F.);
#120=ORIENTED_EDGE('',*,*,#95,.F.);
#121=ORIENTED_EDGE('',*,*,#96,.F.);
#122=ORIENTED_EDGE('',*,*,#97,.F.);
#123=ORIENTED_EDGE('',*,*,#98,.F.);
#124=ORIENTED_EDGE('',*,*,#99,.T.);
#125=ORIENTED_EDGE('',*,*,#100,.T.);
#126=ORIENTED_EDGE('',*,*,#101,.T.);
#127=ORIENTED_EDGE('',*,*,#102,.T.);
#128=ORIENTED_EDGE('',*,*,#99,.F.);
#129=ORIENTED_EDGE('',*,*,#103,.F.);
#130=ORIENTED_EDGE('',*,*,#104,.T.);
#131=ORIENTED_EDGE('',*,*,#97,.T.);
#132=ORIENTED_EDGE('',*,*,#96,.T.);
#133=ORIENTED_EDGE('',*,*,#98,.T.);
#134=ORIENTED_EDGE('',*,*,#104,.F.);
#135=ORIENTED_EDGE('',*,*,#103,.T.);
#136=ORIENTED_EDGE('',*,*,#105,.F.);
#137=ORIENTED_EDGE('',*,*,#105,.T.);
#138=ORIENTED_EDGE('',*,*,#106,.T.);
#139=ORIENTED_EDGE('',*,*,#92,.F.);
#140=ORIENTED_EDGE('',*,*,#91,.F.);
#141=ORIENTED_EDGE('',*,*,#90,.F.);
#142=ORIENTED_EDGE('',*,*,#93,.F.);
#143=ORIENTED_EDGE('',*,*,#106,.F.);
#144=ORIENTED_EDGE('',*,*,#107,.F.);
#145=ORIENTED_EDGE('',*,*,#108,.T.);
#146=ORIENTED_EDGE('',*,*,#102,.F.);
#147=ORIENTED_EDGE('',*,*,#101,.F.);
#148=ORIENTED_EDGE('',*,*,#109,.T.);
#149=ORIENTED_EDGE('',*,*,#107,.T.);
#150=ORIENTED_EDGE('',*,*,#109,.F.);
#151=ORIENTED_EDGE('',*,*,#100,.F.);
#152=ORIENTED_EDGE('',*,*,#87,.T.);
#153=ORIENTED_EDGE('',*,*,#95,.T.);
#154=ORIENTED_EDGE('',*,*,#110,.T.);
#155=ORIENTED_EDGE('',*,*,#108,.F.);
#156=ORIENTED_EDGE('',*,*,#110,.F.);
#157=ORIENTED_EDGE('',*,*,#94,.T.);
#158=ORIENTED_EDGE('',*,*,#88,.T.);
#159=(
BOUNDED_SURFACE()
B_SPLINE_SURFACE(1,2,((#268,#269,#270,#271,#272,#273,#274,#275,#276),(#277,
#278,#279,#280,#281,#282,#283,#284,#285)),.UNSPECIFIED.,.F.,.T.,.F.)
B_SPLINE_SURFACE_WITH_KNOTS((2,2),(3,2,2,2,3),(-0.227323589306286,2.10859315410421),
(-3.14159265358979,-1.5707963267949,0.,1.5707963267949,3.14159265358979),
 .UNSPECIFIED.)
GEOMETRIC_REPRESENTATION_ITEM()
RATIONAL_B_SPLINE_SURFACE(((1.,0.707106781186548,1.,0.707106781186548,1.,
0.707106781186548,1.,0.707106781186548,1.),(1.,0.707106781186548,1.,0.707106781186548,
1.,0.707106781186548,1.,0.707106781186548,1.)))
REPRESENTATION_ITEM('')
SURFACE()
);
#160=(
BOUNDED_SURFACE()
B_SPLINE_SURFACE(1,2,((#304,#305,#306,#307,#308,#309,#310,#311,#312),(#313,
#314,#315,#316,#317,#318,#319,#320,#321)),.UNSPECIFIED.,.F.,.T.,.F.)
B_SPLINE_SURFACE_WITH_KNOTS((2,2),(3,2,2,2,3),(-0.227036300326244,2.02277142939471),
(-3.14159265358979,-1.5707963267949,0.,1.5707963267949,3.14159265358979),
 .UNSPECIFIED.)
GEOMETRIC_REPRESENTATION_ITEM()
RATIONAL_B_SPLINE_SURFACE(((1.,0.707106781186548,1.,0.707106781186548,1.,
0.707106781186548,1.,0.707106781186548,1.),(1.,0.707106781186548,1.,0.707106781186548,
1.,0.707106781186548,1.,0.707106781186548,1.)))
REPRESENTATION_ITEM('')
SURFACE()
);
#161=ADVANCED_FACE('',(#31),#159,.T.);
#162=ADVANCED_FACE('',(#32),#160,.F.);
#163=ADVANCED_FACE('',(#33),#27,.T.);
#164=ADVANCED_FACE('',(#34,#15),#17,.T.);
#165=ADVANCED_FACE('',(#35),#28,.F.);
#166=ADVANCED_FACE('',(#36,#16),#18,.T.);
#167=ADVANCED_FACE('',(#37),#29,.T.);
#168=ADVANCED_FACE('',(#38),#30,.F.);
#169=CLOSED_SHELL('',(#161,#162,#163,#164,#165,#166,#167,#168));
#170=DERIVED_UNIT_ELEMENT(#172,1.);
#171=DERIVED_UNIT_ELEMENT(#359,-3.);
#172=(
MASS_UNIT()
NAMED_UNIT(*)
SI_UNIT($,.GRAM.)
);
#173=DERIVED_UNIT((#170,#171));
#174=MEASURE_REPRESENTATION_ITEM('density measure',
POSITIVE_RATIO_MEASURE(1.),#173);
#175=PROPERTY_DEFINITION_REPRESENTATION(#180,#177);
#176=PROPERTY_DEFINITION_REPRESENTATION(#181,#178);
#177=REPRESENTATION('material name',(#179),#356);
#178=REPRESENTATION('density',(#174),#356);
#179=DESCRIPTIVE_REPRESENTATION_ITEM('\X2\4E00822C\X0\','\X2\4E00822C\X0\');
#180=PROPERTY_DEFINITION('material property','material name',#366);
#181=PROPERTY_DEFINITION('material property','density of part',#366);
#182=DATE_TIME_ROLE('creation_date');
#183=APPLIED_DATE_AND_TIME_ASSIGNMENT(#184,#182,(#366));
#184=DATE_AND_TIME(#185,#186);
#185=CALENDAR_DATE(2022,29,3);
#186=LOCAL_TIME(0,0,0.,#187);
#187=COORDINATED_UNIVERSAL_TIME_OFFSET(0,0,.BEHIND.);
#188=AXIS2_PLACEMENT_3D('placement',#267,#213,#214);
#189=AXIS2_PLACEMENT_3D('',#288,#215,#216);
#190=AXIS2_PLACEMENT_3D('',#290,#217,#218);
#191=AXIS2_PLACEMENT_3D('',#295,#219,#220);
#192=AXIS2_PLACEMENT_3D('',#297,#221,#222);
#193=AXIS2_PLACEMENT_3D('',#299,#223,#224);
#194=AXIS2_PLACEMENT_3D('',#300,#225,#226);
#195=AXIS2_PLACEMENT_3D('',#302,#227,#228);
#196=AXIS2_PLACEMENT_3D('',#303,#229,#230);
#197=AXIS2_PLACEMENT_3D('',#324,#231,#232);
#198=AXIS2_PLACEMENT_3D('',#326,#233,#234);
#199=AXIS2_PLACEMENT_3D('',#327,#235,#236);
#200=AXIS2_PLACEMENT_3D('',#332,#237,#238);
#201=AXIS2_PLACEMENT_3D('',#334,#239,#240);
#202=AXIS2_PLACEMENT_3D('',#335,#241,#242);
#203=AXIS2_PLACEMENT_3D('',#336,#243,#244);
#204=AXIS2_PLACEMENT_3D('',#338,#245,#246);
#205=AXIS2_PLACEMENT_3D('',#340,#248,#249);
#206=AXIS2_PLACEMENT_3D('',#342,#250,#251);
#207=AXIS2_PLACEMENT_3D('',#343,#252,#253);
#208=AXIS2_PLACEMENT_3D('',#345,#255,#256);
#209=AXIS2_PLACEMENT_3D('',#347,#257,#258);
#210=AXIS2_PLACEMENT_3D('',#349,#259,#260);
#211=AXIS2_PLACEMENT_3D('',#350,#261,#262);
#212=AXIS2_PLACEMENT_3D('',#352,#264,#265);
#213=DIRECTION('axis',(0.,0.,1.));
#214=DIRECTION('refdir',(1.,0.,0.));
#215=DIRECTION('center_axis',(1.,0.,0.));
#216=DIRECTION('ref_axis',(0.,0.,-1.));
#217=DIRECTION('center_axis',(1.,0.,0.));
#218=DIRECTION('ref_axis',(0.,0.,-1.));
#219=DIRECTION('center_axis',(1.,0.,0.));
#220=DIRECTION('ref_axis',(0.,0.,-1.));
#221=DIRECTION('center_axis',(1.,0.,0.));
#222=DIRECTION('ref_axis',(0.,0.,-1.));
#223=DIRECTION('center_axis',(1.,0.,0.));
#224=DIRECTION('ref_axis',(0.,0.,-1.));
#225=DIRECTION('center_axis',(1.,0.,0.));
#226=DIRECTION('ref_axis',(0.,0.,-1.));
#227=DIRECTION('center_axis',(1.,0.,0.));
#228=DIRECTION('ref_axis',(0.,0.,-1.));
#229=DIRECTION('center_axis',(1.,0.,0.));
#230=DIRECTION('ref_axis',(0.,0.,-1.));
#231=DIRECTION('center_axis',(1.,0.,0.));
#232=DIRECTION('ref_axis',(0.,0.,-1.));
#233=DIRECTION('center_axis',(1.,0.,0.));
#234=DIRECTION('ref_axis',(0.,0.,-1.));
#235=DIRECTION('center_axis',(1.,0.,0.));
#236=DIRECTION('ref_axis',(0.,0.,-1.));
#237=DIRECTION('center_axis',(1.,0.,0.));
#238=DIRECTION('ref_axis',(0.,0.,-1.));
#239=DIRECTION('center_axis',(1.,0.,0.));
#240=DIRECTION('ref_axis',(0.,0.,-1.));
#241=DIRECTION('center_axis',(1.,0.,0.));
#242=DIRECTION('ref_axis',(0.,0.,-1.));
#243=DIRECTION('center_axis',(1.,0.,0.));
#244=DIRECTION('ref_axis',(0.,0.,-1.));
#245=DIRECTION('center_axis',(1.,0.,0.));
#246=DIRECTION('ref_axis',(0.,0.,-1.));
#247=DIRECTION('',(-1.,0.,0.));
#248=DIRECTION('center_axis',(1.,0.,0.));
#249=DIRECTION('ref_axis',(0.,0.,-1.));
#250=DIRECTION('center_axis',(1.,0.,0.));
#251=DIRECTION('ref_axis',(0.,0.,-1.));
#252=DIRECTION('center_axis',(1.,0.,0.));
#253=DIRECTION('ref_axis',(0.,0.,-1.));
#254=DIRECTION('',(-1.,0.,0.));
#255=DIRECTION('center_axis',(-1.,0.,0.));
#256=DIRECTION('ref_axis',(0.,0.,1.));
#257=DIRECTION('center_axis',(1.,0.,0.));
#258=DIRECTION('ref_axis',(0.,0.,-1.));
#259=DIRECTION('center_axis',(1.,0.,0.));
#260=DIRECTION('ref_axis',(0.,0.,-1.));
#261=DIRECTION('center_axis',(1.,0.,0.));
#262=DIRECTION('ref_axis',(0.,0.,-1.));
#263=DIRECTION('',(-1.,0.,0.));
#264=DIRECTION('center_axis',(1.,0.,0.));
#265=DIRECTION('ref_axis',(0.,0.,-1.));
#266=DIRECTION('',(-1.,0.,0.));
#267=CARTESIAN_POINT('',(0.,0.,0.));
#268=CARTESIAN_POINT('Ctrl Pts',(-4.67242981218258,-44.7481086808932,0.0604526863260471));
#269=CARTESIAN_POINT('Ctrl Pts',(-14.3448596243651,-44.7481086808931,-42.4290946273478));
#270=CARTESIAN_POINT('Ctrl Pts',(-14.3448596243651,9.50909333636918E-14,
-42.4290946273477));
#271=CARTESIAN_POINT('Ctrl Pts',(-14.3448596243651,44.7481086808933,-42.4290946273476));
#272=CARTESIAN_POINT('Ctrl Pts',(-4.67242981218254,44.7481086808932,0.0604526863262375));
#273=CARTESIAN_POINT('Ctrl Pts',(4.99999999999998,44.7481086808931,42.5500000000001));
#274=CARTESIAN_POINT('Ctrl Pts',(4.99999999999996,-9.50909333636918E-14,
42.55));
#275=CARTESIAN_POINT('Ctrl Pts',(4.99999999999994,-44.7481086808933,42.5499999999999));
#276=CARTESIAN_POINT('Ctrl Pts',(-4.67242981218258,-44.7481086808932,0.0604526863260471));
#277=CARTESIAN_POINT('Ctrl Pts',(89.9565170572125,-22.7156902329741,-21.4811241169743));
#278=CARTESIAN_POINT('Ctrl Pts',(85.0464565900639,-22.7156902329741,-43.0502903536879));
#279=CARTESIAN_POINT('Ctrl Pts',(85.0464565900639,4.20111081092539E-14,
-43.0502903536879));
#280=CARTESIAN_POINT('Ctrl Pts',(85.0464565900639,22.7156902329742,-43.0502903536879));
#281=CARTESIAN_POINT('Ctrl Pts',(89.9565170572125,22.7156902329741,-21.4811241169742));
#282=CARTESIAN_POINT('Ctrl Pts',(94.866577524361,22.7156902329741,0.0880421197394404));
#283=CARTESIAN_POINT('Ctrl Pts',(94.866577524361,-4.20111081092539E-14,
0.0880421197394001));
#284=CARTESIAN_POINT('Ctrl Pts',(94.866577524361,-22.7156902329742,0.0880421197393513));
#285=CARTESIAN_POINT('Ctrl Pts',(89.9565170572125,-22.7156902329741,-21.4811241169743));
#286=CARTESIAN_POINT('',(4.99999999999884,-9.65965661436595,-41.4390339425588));
#287=CARTESIAN_POINT('',(4.99999999999884,9.65965661436595,-41.4390339425588));
#288=CARTESIAN_POINT('Origin',(4.99999999999998,0.,0.));
#289=CARTESIAN_POINT('',(4.99999999999998,-42.4960808598052,-2.14140410873304));
#290=CARTESIAN_POINT('Origin',(4.99999999999998,0.,0.));
#291=CARTESIAN_POINT('',(85.,-23.8697140434628,-20.352809828407));
#292=CARTESIAN_POINT('Ctrl Pts',(4.99999999999998,-42.4960808598052,-2.14140410873304));
#293=CARTESIAN_POINT('Ctrl Pts',(85.,-23.8697140434629,-20.352809828407));
#294=CARTESIAN_POINT('',(84.9999999999991,-5.42575306893881,-42.4259791122715));
#295=CARTESIAN_POINT('Origin',(85.,0.,-19.15));
#296=CARTESIAN_POINT('',(84.9999999999991,5.42575306893881,-42.4259791122715));
#297=CARTESIAN_POINT('Origin',(85.,0.,-19.15));
#298=CARTESIAN_POINT('',(85.,-2.92690584996217E-15,4.74999999999999));
#299=CARTESIAN_POINT('Origin',(85.,0.,-19.15));
#300=CARTESIAN_POINT('Origin',(85.,0.,-19.15));
#301=CARTESIAN_POINT('',(4.99999999999998,-5.21087213037199E-15,42.55));
#302=CARTESIAN_POINT('Origin',(4.99999999999998,0.,0.));
#303=CARTESIAN_POINT('Origin',(4.99999999999998,0.,0.));
#304=CARTESIAN_POINT('Ctrl Pts',(-5.11446717953402,46.9087093914989,7.20798162473024E-13));
#305=CARTESIAN_POINT('Ctrl Pts',(5.00000000000009,46.9087093914982,44.5500000000008));
#306=CARTESIAN_POINT('Ctrl Pts',(4.99999999999993,-7.16071314274173E-13,
44.5500000000001));
#307=CARTESIAN_POINT('Ctrl Pts',(4.99999999999977,-46.9087093914996,44.5499999999993));
#308=CARTESIAN_POINT('Ctrl Pts',(-5.11446717953434,-46.9087093914989,-6.95832280683817E-13));
#309=CARTESIAN_POINT('Ctrl Pts',(-15.2289343590685,-46.9087093914982,-44.5500000000007));
#310=CARTESIAN_POINT('Ctrl Pts',(-15.2289343590683,6.98307745880171E-13,
-44.55));
#311=CARTESIAN_POINT('Ctrl Pts',(-15.2289343590681,46.9087093914996,-44.5499999999993));
#312=CARTESIAN_POINT('Ctrl Pts',(-5.11446717953402,46.9087093914989,7.20798162473024E-13));
#313=CARTESIAN_POINT('Ctrl Pts',(90.2013666161555,24.1228124729662,-21.640154267484));
#314=CARTESIAN_POINT('Ctrl Pts',(95.4027332323108,24.1228124729659,1.26969146503161));
#315=CARTESIAN_POINT('Ctrl Pts',(95.4027332323107,-3.69188508215827E-13,
1.26969146503126));
#316=CARTESIAN_POINT('Ctrl Pts',(95.4027332323105,-24.1228124729666,1.2696914650309));
#317=CARTESIAN_POINT('Ctrl Pts',(90.2013666161552,-24.1228124729663,-21.6401542674847));
#318=CARTESIAN_POINT('Ctrl Pts',(84.9999999999999,-24.1228124729659,-44.5500000000004));
#319=CARTESIAN_POINT('Ctrl Pts',(85.,3.51424939821825E-13,-44.55));
#320=CARTESIAN_POINT('Ctrl Pts',(85.0000000000002,24.1228124729666,-44.5499999999996));
#321=CARTESIAN_POINT('Ctrl Pts',(90.2013666161555,24.1228124729662,-21.640154267484));
#322=CARTESIAN_POINT('',(85.,0.,-44.55));
#323=CARTESIAN_POINT('',(85.,25.3662344610198,-20.4592552343116));
#324=CARTESIAN_POINT('Origin',(85.,0.,-19.15));
#325=CARTESIAN_POINT('',(85.,-3.11060286983428E-15,6.25));
#326=CARTESIAN_POINT('Origin',(85.,0.,-19.15));
#327=CARTESIAN_POINT('Origin',(85.,0.,-19.15));
#328=CARTESIAN_POINT('',(4.99999999999998,44.4907773715918,-2.29635120821192));
#329=CARTESIAN_POINT('Ctrl Pts',(85.,25.3662344610198,-20.4592552343116));
#330=CARTESIAN_POINT('Ctrl Pts',(4.99999999999997,44.4907773715918,-2.29635120821192));
#331=CARTESIAN_POINT('',(4.99999999999998,-5.45580149020146E-15,44.55));
#332=CARTESIAN_POINT('Origin',(4.99999999999998,0.,0.));
#333=CARTESIAN_POINT('',(4.99999999999998,0.,-44.55));
#334=CARTESIAN_POINT('Origin',(4.99999999999998,0.,0.));
#335=CARTESIAN_POINT('Origin',(4.99999999999998,0.,0.));
#336=CARTESIAN_POINT('Origin',(87.5,0.,-19.15));
#337=CARTESIAN_POINT('',(90.,-3.11060286983428E-15,6.25));
#338=CARTESIAN_POINT('Origin',(90.,0.,-19.15));
#339=CARTESIAN_POINT('',(87.5,-3.11060286983428E-15,6.25));
#340=CARTESIAN_POINT('Origin',(89.9999999999999,0.,-43.05));
#341=CARTESIAN_POINT('',(89.9999999999999,-2.92690584996217E-15,4.74999999999999));
#342=CARTESIAN_POINT('Origin',(89.9999999999999,0.,-19.15));
#343=CARTESIAN_POINT('Origin',(87.5,0.,-19.15));
#344=CARTESIAN_POINT('',(87.5,-2.92690584996217E-15,4.74999999999999));
#345=CARTESIAN_POINT('Origin',(-2.27541492230991E-14,0.,-44.55));
#346=CARTESIAN_POINT('',(-2.27595720048157E-14,-5.45580149020146E-15,44.55));
#347=CARTESIAN_POINT('Origin',(-2.27595720048157E-14,0.,0.));
#348=CARTESIAN_POINT('',(-2.22044604925031E-14,-5.21087213037199E-15,42.55));
#349=CARTESIAN_POINT('Origin',(-2.22044604925031E-14,0.,0.));
#350=CARTESIAN_POINT('Origin',(2.49999999999998,0.,0.));
#351=CARTESIAN_POINT('',(2.49999999999998,-5.45580149020146E-15,44.55));
#352=CARTESIAN_POINT('Origin',(2.49999999999998,0.,0.));
#353=CARTESIAN_POINT('',(2.49999999999998,-5.21087213037199E-15,42.55));
#354=UNCERTAINTY_MEASURE_WITH_UNIT(LENGTH_MEASURE(0.01),#358,
'DISTANCE_ACCURACY_VALUE',
'Maximum model space distance between geometric entities at asserted c
onnectivities');
#355=UNCERTAINTY_MEASURE_WITH_UNIT(LENGTH_MEASURE(0.01),#358,
'DISTANCE_ACCURACY_VALUE',
'Maximum model space distance between geometric entities at asserted c
onnectivities');
#356=(
GEOMETRIC_REPRESENTATION_CONTEXT(3)
GLOBAL_UNCERTAINTY_ASSIGNED_CONTEXT((#354))
GLOBAL_UNIT_ASSIGNED_CONTEXT((#358,#360,#361))
REPRESENTATION_CONTEXT('','3D')
);
#357=(
GEOMETRIC_REPRESENTATION_CONTEXT(3)
GLOBAL_UNCERTAINTY_ASSIGNED_CONTEXT((#355))
GLOBAL_UNIT_ASSIGNED_CONTEXT((#358,#360,#361))
REPRESENTATION_CONTEXT('','3D')
);
#358=(
LENGTH_UNIT()
NAMED_UNIT(*)
SI_UNIT(.MILLI.,.METRE.)
);
#359=(
LENGTH_UNIT()
NAMED_UNIT(*)
SI_UNIT(.CENTI.,.METRE.)
);
#360=(
NAMED_UNIT(*)
PLANE_ANGLE_UNIT()
SI_UNIT($,.RADIAN.)
);
#361=(
NAMED_UNIT(*)
SI_UNIT($,.STERADIAN.)
SOLID_ANGLE_UNIT()
);
#362=SHAPE_DEFINITION_REPRESENTATION(#363,#364);
#363=PRODUCT_DEFINITION_SHAPE('',$,#366);
#364=SHAPE_REPRESENTATION('',(#188),#356);
#365=PRODUCT_DEFINITION_CONTEXT('part definition',#370,'design');
#366=PRODUCT_DEFINITION('T14 35\X\D720','T14 35\X\D720',#367,#365);
#367=PRODUCT_DEFINITION_FORMATION('',$,#372);
#368=PRODUCT_RELATED_PRODUCT_CATEGORY('T14 35\X\D720','T14 35\X\D720',(#372));
#369=APPLICATION_PROTOCOL_DEFINITION('international standard',
'automotive_design',2009,#370);
#370=APPLICATION_CONTEXT(
'Core Data for Automotive Mechanical Design Process');
#371=PRODUCT_CONTEXT('part definition',#370,'mechanical');
#372=PRODUCT('T14 35\X\D720','T14 35\X\D720',$,(#371));
#373=PRESENTATION_STYLE_ASSIGNMENT((#374));
#374=SURFACE_STYLE_USAGE(.BOTH.,#377);
#375=SURFACE_STYLE_RENDERING_WITH_PROPERTIES($,#381,(#376));
#376=SURFACE_STYLE_TRANSPARENT(0.);
#377=SURFACE_SIDE_STYLE('',(#378,#375));
#378=SURFACE_STYLE_FILL_AREA(#379);
#379=FILL_AREA_STYLE('',(#380));
#380=FILL_AREA_STYLE_COLOUR('',#381);
#381=COLOUR_RGB('',0.749019607843137,0.749019607843137,0.749019607843137);
ENDSEC;
END-ISO-10303-21;
