ISO-10303-21;
HEADER;
/* Generated by software containing ST-Developer
 * from STEP Tools, Inc. (www.steptools.com) 
 */

FILE_DESCRIPTION(
/* description */ (''),
/* implementation_level */ '2;1');

FILE_NAME(
/* name */ 
'\\\\Tske00\\w\\Work\\TOSTE\\\X2\7D99624B\X0\\\02_\X2\6EB663A5\X0\\\\X2\6EB663A530EC30B830E530FC30B530FC\X0\\\
\X2\30A830AD30BB30F330C830EC30B830E530FC30B530FC\X0\\\T14 25\X\D710.st
p',
/* time_stamp */ '2022-04-12T12:01:38+09:00',
/* author */ ('3dcad-eng'),
/* organization */ (''),
/* preprocessor_version */ 'ST-DEVELOPER v18.1',
/* originating_system */ 'Autodesk Inventor 2022',
/* authorisation */ '');

FILE_SCHEMA (('AUTOMOTIVE_DESIGN { 1 0 10303 214 3 1 1 }'));
ENDSEC;

DATA;
#10=MECHANICAL_DESIGN_GEOMETRIC_PRESENTATION_REPRESENTATION('',(#13),#357);
#11=SHAPE_REPRESENTATION_RELATIONSHIP('SRR','None',#364,#12);
#12=ADVANCED_BREP_SHAPE_REPRESENTATION('',(#14),#356);
#13=STYLED_ITEM('',(#373),#14);
#14=MANIFOLD_SOLID_BREP('\X2\30BD30EA30C330C9\X0\1',#169);
#15=FACE_BOUND('',#43,.T.);
#16=FACE_BOUND('',#46,.T.);
#17=PLANE('',#205);
#18=PLANE('',#208);
#19=LINE('',#339,#23);
#20=LINE('',#344,#24);
#21=LINE('',#351,#25);
#22=LINE('',#353,#26);
#23=VECTOR('',#247,12.7);
#24=VECTOR('',#254,11.5);
#25=VECTOR('',#263,31.75);
#26=VECTOR('',#266,29.75);
#27=CYLINDRICAL_SURFACE('',#203,12.7);
#28=CYLINDRICAL_SURFACE('',#207,11.5);
#29=CYLINDRICAL_SURFACE('',#211,31.75);
#30=CYLINDRICAL_SURFACE('',#212,29.75);
#31=FACE_OUTER_BOUND('',#39,.T.);
#32=FACE_OUTER_BOUND('',#40,.T.);
#33=FACE_OUTER_BOUND('',#41,.T.);
#34=FACE_OUTER_BOUND('',#42,.T.);
#35=FACE_OUTER_BOUND('',#44,.T.);
#36=FACE_OUTER_BOUND('',#45,.T.);
#37=FACE_OUTER_BOUND('',#47,.T.);
#38=FACE_OUTER_BOUND('',#48,.T.);
#39=EDGE_LOOP('',(#111,#112,#113,#114,#115,#116,#117,#118,#119,#120));
#40=EDGE_LOOP('',(#121,#122,#123,#124,#125,#126,#127,#128));
#41=EDGE_LOOP('',(#129,#130,#131,#132,#133,#134));
#42=EDGE_LOOP('',(#135));
#43=EDGE_LOOP('',(#136));
#44=EDGE_LOOP('',(#137,#138,#139,#140,#141,#142,#143));
#45=EDGE_LOOP('',(#144));
#46=EDGE_LOOP('',(#145));
#47=EDGE_LOOP('',(#146,#147,#148,#149,#150,#151));
#48=EDGE_LOOP('',(#152,#153,#154,#155,#156,#157,#158));
#49=B_SPLINE_CURVE_WITH_KNOTS('',1,(#292,#293),.UNSPECIFIED.,.F.,.F.,(2,
2),(0.02704628044389,2.11340087920333),.UNSPECIFIED.);
#50=B_SPLINE_CURVE_WITH_KNOTS('',1,(#329,#330),.UNSPECIFIED.,.F.,.F.,(2,
2),(-1.98851409540253,-0.02793898882488),.UNSPECIFIED.);
#51=CIRCLE('',#189,29.75);
#52=CIRCLE('',#190,29.75);
#53=CIRCLE('',#191,11.5);
#54=CIRCLE('',#192,11.5);
#55=CIRCLE('',#193,11.5);
#56=CIRCLE('',#194,11.5);
#57=CIRCLE('',#195,29.75);
#58=CIRCLE('',#196,29.75);
#59=CIRCLE('',#197,12.7);
#60=CIRCLE('',#198,12.7);
#61=CIRCLE('',#199,12.7);
#62=CIRCLE('',#200,31.75);
#63=CIRCLE('',#201,31.75);
#64=CIRCLE('',#202,31.75);
#65=CIRCLE('',#204,12.7);
#66=CIRCLE('',#206,11.5);
#67=CIRCLE('',#209,31.75);
#68=CIRCLE('',#210,29.75);
#69=VERTEX_POINT('',#286);
#70=VERTEX_POINT('',#287);
#71=VERTEX_POINT('',#289);
#72=VERTEX_POINT('',#291);
#73=VERTEX_POINT('',#294);
#74=VERTEX_POINT('',#296);
#75=VERTEX_POINT('',#298);
#76=VERTEX_POINT('',#301);
#77=VERTEX_POINT('',#322);
#78=VERTEX_POINT('',#323);
#79=VERTEX_POINT('',#325);
#80=VERTEX_POINT('',#328);
#81=VERTEX_POINT('',#331);
#82=VERTEX_POINT('',#333);
#83=VERTEX_POINT('',#337);
#84=VERTEX_POINT('',#341);
#85=VERTEX_POINT('',#346);
#86=VERTEX_POINT('',#348);
#87=EDGE_CURVE('',#69,#70,#51,.T.);
#88=EDGE_CURVE('',#71,#69,#52,.T.);
#89=EDGE_CURVE('',#71,#72,#49,.T.);
#90=EDGE_CURVE('',#72,#73,#53,.T.);
#91=EDGE_CURVE('',#73,#74,#54,.T.);
#92=EDGE_CURVE('',#74,#75,#55,.T.);
#93=EDGE_CURVE('',#75,#72,#56,.T.);
#94=EDGE_CURVE('',#76,#71,#57,.T.);
#95=EDGE_CURVE('',#70,#76,#58,.T.);
#96=EDGE_CURVE('',#77,#78,#59,.T.);
#97=EDGE_CURVE('',#79,#77,#60,.T.);
#98=EDGE_CURVE('',#78,#79,#61,.T.);
#99=EDGE_CURVE('',#78,#80,#50,.T.);
#100=EDGE_CURVE('',#80,#81,#62,.T.);
#101=EDGE_CURVE('',#81,#82,#63,.T.);
#102=EDGE_CURVE('',#82,#80,#64,.T.);
#103=EDGE_CURVE('',#83,#83,#65,.T.);
#104=EDGE_CURVE('',#83,#79,#19,.T.);
#105=EDGE_CURVE('',#84,#84,#66,.T.);
#106=EDGE_CURVE('',#84,#75,#20,.T.);
#107=EDGE_CURVE('',#85,#85,#67,.T.);
#108=EDGE_CURVE('',#86,#86,#68,.T.);
#109=EDGE_CURVE('',#81,#85,#21,.T.);
#110=EDGE_CURVE('',#76,#86,#22,.T.);
#111=ORIENTED_EDGE('',*,*,#87,.F.);
#112=ORIENTED_EDGE('',*,*,#88,.F.);
#113=ORIENTED_EDGE('',*,*,#89,.T.);
#114=ORIENTED_EDGE('',*,*,#90,.T.);
#115=ORIENTED_EDGE('',*,*,#91,.T.);
#116=ORIENTED_EDGE('',*,*,#92,.T.);
#117=ORIENTED_EDGE('',*,*,#93,.T.);
#118=ORIENTED_EDGE('',*,*,#89,.F.);
#119=ORIENTED_EDGE('',*,*,#94,.F.);
#120=ORIENTED_EDGE('',*,*,#95,.F.);
#121=ORIENTED_EDGE('',*,*,#96,.F.);
#122=ORIENTED_EDGE('',*,*,#97,.F.);
#123=ORIENTED_EDGE('',*,*,#98,.F.);
#124=ORIENTED_EDGE('',*,*,#99,.T.);
#125=ORIENTED_EDGE('',*,*,#100,.T.);
#126=ORIENTED_EDGE('',*,*,#101,.T.);
#127=ORIENTED_EDGE('',*,*,#102,.T.);
#128=ORIENTED_EDGE('',*,*,#99,.F.);
#129=ORIENTED_EDGE('',*,*,#103,.F.);
#130=ORIENTED_EDGE('',*,*,#104,.T.);
#131=ORIENTED_EDGE('',*,*,#97,.T.);
#132=ORIENTED_EDGE('',*,*,#96,.T.);
#133=ORIENTED_EDGE('',*,*,#98,.T.);
#134=ORIENTED_EDGE('',*,*,#104,.F.);
#135=ORIENTED_EDGE('',*,*,#103,.T.);
#136=ORIENTED_EDGE('',*,*,#105,.F.);
#137=ORIENTED_EDGE('',*,*,#105,.T.);
#138=ORIENTED_EDGE('',*,*,#106,.T.);
#139=ORIENTED_EDGE('',*,*,#92,.F.);
#140=ORIENTED_EDGE('',*,*,#91,.F.);
#141=ORIENTED_EDGE('',*,*,#90,.F.);
#142=ORIENTED_EDGE('',*,*,#93,.F.);
#143=ORIENTED_EDGE('',*,*,#106,.F.);
#144=ORIENTED_EDGE('',*,*,#107,.F.);
#145=ORIENTED_EDGE('',*,*,#108,.T.);
#146=ORIENTED_EDGE('',*,*,#102,.F.);
#147=ORIENTED_EDGE('',*,*,#101,.F.);
#148=ORIENTED_EDGE('',*,*,#109,.T.);
#149=ORIENTED_EDGE('',*,*,#107,.T.);
#150=ORIENTED_EDGE('',*,*,#109,.F.);
#151=ORIENTED_EDGE('',*,*,#100,.F.);
#152=ORIENTED_EDGE('',*,*,#87,.T.);
#153=ORIENTED_EDGE('',*,*,#95,.T.);
#154=ORIENTED_EDGE('',*,*,#110,.T.);
#155=ORIENTED_EDGE('',*,*,#108,.F.);
#156=ORIENTED_EDGE('',*,*,#110,.F.);
#157=ORIENTED_EDGE('',*,*,#94,.T.);
#158=ORIENTED_EDGE('',*,*,#88,.T.);
#159=(
BOUNDED_SURFACE()
B_SPLINE_SURFACE(1,2,((#268,#269,#270,#271,#272,#273,#274,#275,#276),(#277,
#278,#279,#280,#281,#282,#283,#284,#285)),.UNSPECIFIED.,.F.,.T.,.F.)
B_SPLINE_SURFACE_WITH_KNOTS((2,2),(3,2,2,2,3),(-0.304494803975213,2.22225101604633),
(-3.14159265358979,-1.5707963267949,0.,1.5707963267949,3.14159265358979),
 .UNSPECIFIED.)
GEOMETRIC_REPRESENTATION_ITEM()
RATIONAL_B_SPLINE_SURFACE(((1.,0.707106781186548,1.,0.707106781186548,1.,
0.707106781186548,1.,0.707106781186548,1.),(1.,0.707106781186548,1.,0.707106781186548,
1.,0.707106781186548,1.,0.707106781186548,1.)))
REPRESENTATION_ITEM('')
SURFACE()
);
#160=(
BOUNDED_SURFACE()
B_SPLINE_SURFACE(1,2,((#304,#305,#306,#307,#308,#309,#310,#311,#312),(#313,
#314,#315,#316,#317,#318,#319,#320,#321)),.UNSPECIFIED.,.F.,.T.,.F.)
B_SPLINE_SURFACE_WITH_KNOTS((2,2),(3,2,2,2,3),(-0.303438182202322,2.0987137727535),
(-3.14159265358979,-1.5707963267949,0.,1.5707963267949,3.14159265358979),
 .UNSPECIFIED.)
GEOMETRIC_REPRESENTATION_ITEM()
RATIONAL_B_SPLINE_SURFACE(((1.,0.707106781186548,1.,0.707106781186548,1.,
0.707106781186548,1.,0.707106781186548,1.),(1.,0.707106781186548,1.,0.707106781186548,
1.,0.707106781186548,1.,0.707106781186548,1.)))
REPRESENTATION_ITEM('')
SURFACE()
);
#161=ADVANCED_FACE('',(#31),#159,.T.);
#162=ADVANCED_FACE('',(#32),#160,.F.);
#163=ADVANCED_FACE('',(#33),#27,.T.);
#164=ADVANCED_FACE('',(#34,#15),#17,.T.);
#165=ADVANCED_FACE('',(#35),#28,.F.);
#166=ADVANCED_FACE('',(#36,#16),#18,.T.);
#167=ADVANCED_FACE('',(#37),#29,.T.);
#168=ADVANCED_FACE('',(#38),#30,.F.);
#169=CLOSED_SHELL('',(#161,#162,#163,#164,#165,#166,#167,#168));
#170=DERIVED_UNIT_ELEMENT(#172,1.);
#171=DERIVED_UNIT_ELEMENT(#359,-3.);
#172=(
MASS_UNIT()
NAMED_UNIT(*)
SI_UNIT($,.GRAM.)
);
#173=DERIVED_UNIT((#170,#171));
#174=MEASURE_REPRESENTATION_ITEM('density measure',
POSITIVE_RATIO_MEASURE(1.),#173);
#175=PROPERTY_DEFINITION_REPRESENTATION(#180,#177);
#176=PROPERTY_DEFINITION_REPRESENTATION(#181,#178);
#177=REPRESENTATION('material name',(#179),#356);
#178=REPRESENTATION('density',(#174),#356);
#179=DESCRIPTIVE_REPRESENTATION_ITEM('\X2\4E00822C\X0\','\X2\4E00822C\X0\');
#180=PROPERTY_DEFINITION('material property','material name',#366);
#181=PROPERTY_DEFINITION('material property','density of part',#366);
#182=DATE_TIME_ROLE('creation_date');
#183=APPLIED_DATE_AND_TIME_ASSIGNMENT(#184,#182,(#366));
#184=DATE_AND_TIME(#185,#186);
#185=CALENDAR_DATE(2022,29,3);
#186=LOCAL_TIME(0,0,0.,#187);
#187=COORDINATED_UNIVERSAL_TIME_OFFSET(0,0,.BEHIND.);
#188=AXIS2_PLACEMENT_3D('placement',#267,#213,#214);
#189=AXIS2_PLACEMENT_3D('',#288,#215,#216);
#190=AXIS2_PLACEMENT_3D('',#290,#217,#218);
#191=AXIS2_PLACEMENT_3D('',#295,#219,#220);
#192=AXIS2_PLACEMENT_3D('',#297,#221,#222);
#193=AXIS2_PLACEMENT_3D('',#299,#223,#224);
#194=AXIS2_PLACEMENT_3D('',#300,#225,#226);
#195=AXIS2_PLACEMENT_3D('',#302,#227,#228);
#196=AXIS2_PLACEMENT_3D('',#303,#229,#230);
#197=AXIS2_PLACEMENT_3D('',#324,#231,#232);
#198=AXIS2_PLACEMENT_3D('',#326,#233,#234);
#199=AXIS2_PLACEMENT_3D('',#327,#235,#236);
#200=AXIS2_PLACEMENT_3D('',#332,#237,#238);
#201=AXIS2_PLACEMENT_3D('',#334,#239,#240);
#202=AXIS2_PLACEMENT_3D('',#335,#241,#242);
#203=AXIS2_PLACEMENT_3D('',#336,#243,#244);
#204=AXIS2_PLACEMENT_3D('',#338,#245,#246);
#205=AXIS2_PLACEMENT_3D('',#340,#248,#249);
#206=AXIS2_PLACEMENT_3D('',#342,#250,#251);
#207=AXIS2_PLACEMENT_3D('',#343,#252,#253);
#208=AXIS2_PLACEMENT_3D('',#345,#255,#256);
#209=AXIS2_PLACEMENT_3D('',#347,#257,#258);
#210=AXIS2_PLACEMENT_3D('',#349,#259,#260);
#211=AXIS2_PLACEMENT_3D('',#350,#261,#262);
#212=AXIS2_PLACEMENT_3D('',#352,#264,#265);
#213=DIRECTION('axis',(0.,0.,1.));
#214=DIRECTION('refdir',(1.,0.,0.));
#215=DIRECTION('center_axis',(1.,0.,0.));
#216=DIRECTION('ref_axis',(0.,0.,-1.));
#217=DIRECTION('center_axis',(1.,0.,0.));
#218=DIRECTION('ref_axis',(0.,0.,-1.));
#219=DIRECTION('center_axis',(1.,0.,0.));
#220=DIRECTION('ref_axis',(0.,0.,-1.));
#221=DIRECTION('center_axis',(1.,0.,0.));
#222=DIRECTION('ref_axis',(0.,0.,-1.));
#223=DIRECTION('center_axis',(1.,0.,0.));
#224=DIRECTION('ref_axis',(0.,0.,-1.));
#225=DIRECTION('center_axis',(1.,0.,0.));
#226=DIRECTION('ref_axis',(0.,0.,-1.));
#227=DIRECTION('center_axis',(1.,0.,0.));
#228=DIRECTION('ref_axis',(0.,0.,-1.));
#229=DIRECTION('center_axis',(1.,0.,0.));
#230=DIRECTION('ref_axis',(0.,0.,-1.));
#231=DIRECTION('center_axis',(1.,0.,0.));
#232=DIRECTION('ref_axis',(0.,0.,-1.));
#233=DIRECTION('center_axis',(1.,0.,0.));
#234=DIRECTION('ref_axis',(0.,0.,-1.));
#235=DIRECTION('center_axis',(1.,0.,0.));
#236=DIRECTION('ref_axis',(0.,0.,-1.));
#237=DIRECTION('center_axis',(1.,0.,0.));
#238=DIRECTION('ref_axis',(0.,0.,-1.));
#239=DIRECTION('center_axis',(1.,0.,0.));
#240=DIRECTION('ref_axis',(0.,0.,-1.));
#241=DIRECTION('center_axis',(1.,0.,0.));
#242=DIRECTION('ref_axis',(0.,0.,-1.));
#243=DIRECTION('center_axis',(1.,0.,0.));
#244=DIRECTION('ref_axis',(0.,0.,-1.));
#245=DIRECTION('center_axis',(1.,0.,0.));
#246=DIRECTION('ref_axis',(0.,0.,-1.));
#247=DIRECTION('',(-1.,0.,0.));
#248=DIRECTION('center_axis',(1.,0.,0.));
#249=DIRECTION('ref_axis',(0.,0.,-1.));
#250=DIRECTION('center_axis',(1.,0.,0.));
#251=DIRECTION('ref_axis',(0.,0.,-1.));
#252=DIRECTION('center_axis',(1.,0.,0.));
#253=DIRECTION('ref_axis',(0.,0.,-1.));
#254=DIRECTION('',(-1.,0.,0.));
#255=DIRECTION('center_axis',(-1.,0.,0.));
#256=DIRECTION('ref_axis',(0.,0.,1.));
#257=DIRECTION('center_axis',(1.,0.,0.));
#258=DIRECTION('ref_axis',(0.,0.,-1.));
#259=DIRECTION('center_axis',(1.,0.,0.));
#260=DIRECTION('ref_axis',(0.,0.,-1.));
#261=DIRECTION('center_axis',(1.,0.,0.));
#262=DIRECTION('ref_axis',(0.,0.,-1.));
#263=DIRECTION('',(-1.,0.,0.));
#264=DIRECTION('center_axis',(1.,0.,0.));
#265=DIRECTION('ref_axis',(0.,0.,-1.));
#266=DIRECTION('',(-1.,0.,0.));
#267=CARTESIAN_POINT('',(0.,0.,0.));
#268=CARTESIAN_POINT('Ctrl Pts',(-4.05782833997908,-32.5210409213532,0.127127415297825));
#269=CARTESIAN_POINT('Ctrl Pts',(-13.1156566799581,-32.5210409213531,-29.4957451694042));
#270=CARTESIAN_POINT('Ctrl Pts',(-13.1156566799581,1.32745813930859E-13,
-29.4957451694041));
#271=CARTESIAN_POINT('Ctrl Pts',(-13.115656679958,32.5210409213533,-29.495745169404));
#272=CARTESIAN_POINT('Ctrl Pts',(-4.057828339979,32.5210409213532,0.127127415298091));
#273=CARTESIAN_POINT('Ctrl Pts',(5.00000000000001,32.5210409213531,29.7500000000001));
#274=CARTESIAN_POINT('Ctrl Pts',(4.99999999999997,-1.32745813930859E-13,
29.75));
#275=CARTESIAN_POINT('Ctrl Pts',(4.99999999999993,-32.5210409213533,29.7499999999999));
#276=CARTESIAN_POINT('Ctrl Pts',(-4.05782833997908,-32.5210409213532,0.127127415297825));
#277=CARTESIAN_POINT('Ctrl Pts',(64.9738270779762,-10.5061620104112,-20.9807811108768));
#278=CARTESIAN_POINT('Ctrl Pts',(62.0476288596458,-10.5061620104111,-30.5506684752232));
#279=CARTESIAN_POINT('Ctrl Pts',(62.0476288596458,5.40010749638799E-14,
-30.5506684752231));
#280=CARTESIAN_POINT('Ctrl Pts',(62.0476288596458,10.5061620104112,-30.5506684752231));
#281=CARTESIAN_POINT('Ctrl Pts',(64.9738270779762,10.5061620104112,-20.9807811108767));
#282=CARTESIAN_POINT('Ctrl Pts',(67.9000252963066,10.5061620104111,-11.4108937465304));
#283=CARTESIAN_POINT('Ctrl Pts',(67.9000252963066,-5.40010749638799E-14,
-11.4108937465305));
#284=CARTESIAN_POINT('Ctrl Pts',(67.9000252963065,-10.5061620104112,-11.4108937465305));
#285=CARTESIAN_POINT('Ctrl Pts',(64.9738270779762,-10.5061620104112,-20.9807811108768));
#286=CARTESIAN_POINT('',(5.00000000000022,-8.53083219824654,-28.500656167979));
#287=CARTESIAN_POINT('',(5.00000000000025,8.53083219824654,-28.500656167979));
#288=CARTESIAN_POINT('Origin',(4.99999999999999,0.,0.));
#289=CARTESIAN_POINT('',(4.99999999999999,-29.6324097145044,-2.64249777894808));
#290=CARTESIAN_POINT('Origin',(4.99999999999999,0.,0.));
#291=CARTESIAN_POINT('',(62.,-11.4545449316572,-20.0714697296774));
#292=CARTESIAN_POINT('Ctrl Pts',(4.99999999999999,-29.6324097145044,-2.64249777894808));
#293=CARTESIAN_POINT('Ctrl Pts',(62.,-11.4545449316572,-20.0714697296774));
#294=CARTESIAN_POINT('',(62.0000000000004,-3.29763261444821,-30.0670603674541));
#295=CARTESIAN_POINT('Origin',(62.,0.,-19.05));
#296=CARTESIAN_POINT('',(62.0000000000004,3.29763261444821,-30.0670603674541));
#297=CARTESIAN_POINT('Origin',(62.,0.,-19.05));
#298=CARTESIAN_POINT('',(62.,-1.40834381901946E-15,-7.55000000000001));
#299=CARTESIAN_POINT('Origin',(62.,0.,-19.05));
#300=CARTESIAN_POINT('Origin',(62.,0.,-19.05));
#301=CARTESIAN_POINT('',(4.99999999999999,-3.64332422746338E-15,29.75));
#302=CARTESIAN_POINT('Origin',(4.99999999999999,0.,0.));
#303=CARTESIAN_POINT('Origin',(4.99999999999999,0.,0.));
#304=CARTESIAN_POINT('Ctrl Pts',(-4.63416228492366,34.8212900599455,2.54796184151473E-13));
#305=CARTESIAN_POINT('Ctrl Pts',(5.00000000000006,34.8212900599453,31.7500000000003));
#306=CARTESIAN_POINT('Ctrl Pts',(4.99999999999998,-2.50976021657688E-13,
31.75));
#307=CARTESIAN_POINT('Ctrl Pts',(4.99999999999991,-34.8212900599458,31.7499999999998));
#308=CARTESIAN_POINT('Ctrl Pts',(-4.63416228492382,-34.8212900599455,-2.49245069028348E-13));
#309=CARTESIAN_POINT('Ctrl Pts',(-14.2683245698475,-34.8212900599453,-31.7500000000002));
#310=CARTESIAN_POINT('Ctrl Pts',(-14.2683245698475,2.50976021657688E-13,
-31.75));
#311=CARTESIAN_POINT('Ctrl Pts',(-14.2683245698474,34.8212900599458,-31.7499999999997));
#312=CARTESIAN_POINT('Ctrl Pts',(-4.63416228492366,34.8212900599455,2.54796184151473E-13));
#313=CARTESIAN_POINT('Ctrl Pts',(65.2038464570584,11.5798409336886,-21.1915184212968));
#314=CARTESIAN_POINT('Ctrl Pts',(68.4076929141167,11.5798409336885,-10.6330368425938));
#315=CARTESIAN_POINT('Ctrl Pts',(68.4076929141167,-7.75163843813053E-14,
-10.6330368425938));
#316=CARTESIAN_POINT('Ctrl Pts',(68.4076929141167,-11.5798409336886,-10.6330368425939));
#317=CARTESIAN_POINT('Ctrl Pts',(65.2038464570583,-11.5798409336886,-21.191518421297));
#318=CARTESIAN_POINT('Ctrl Pts',(62.,-11.5798409336885,-31.7500000000001));
#319=CARTESIAN_POINT('Ctrl Pts',(62.,7.75163843813053E-14,-31.75));
#320=CARTESIAN_POINT('Ctrl Pts',(62.,11.5798409336886,-31.7499999999999));
#321=CARTESIAN_POINT('Ctrl Pts',(65.2038464570584,11.5798409336886,-21.1915184212968));
#322=CARTESIAN_POINT('',(62.,0.,-31.75));
#323=CARTESIAN_POINT('',(62.,12.6460516659442,-20.2193490763117));
#324=CARTESIAN_POINT('Origin',(62.,0.,-19.05));
#325=CARTESIAN_POINT('',(62.,-1.55530143491714E-15,-6.35000000000001));
#326=CARTESIAN_POINT('Origin',(62.,0.,-19.05));
#327=CARTESIAN_POINT('Origin',(62.,0.,-19.05));
#328=CARTESIAN_POINT('',(4.99999999999999,31.6151291648604,-2.92337269077917));
#329=CARTESIAN_POINT('Ctrl Pts',(62.,12.6460516659441,-20.2193490763117));
#330=CARTESIAN_POINT('Ctrl Pts',(4.99999999999998,31.6151291648604,-2.92337269077917));
#331=CARTESIAN_POINT('',(4.99999999999999,-3.88825358729285E-15,31.75));
#332=CARTESIAN_POINT('Origin',(4.99999999999999,0.,0.));
#333=CARTESIAN_POINT('',(4.99999999999999,0.,-31.75));
#334=CARTESIAN_POINT('Origin',(4.99999999999999,0.,0.));
#335=CARTESIAN_POINT('Origin',(4.99999999999999,0.,0.));
#336=CARTESIAN_POINT('Origin',(64.5,0.,-19.05));
#337=CARTESIAN_POINT('',(67.,-1.55530143491714E-15,-6.35000000000001));
#338=CARTESIAN_POINT('Origin',(67.,0.,-19.05));
#339=CARTESIAN_POINT('',(64.5,-1.55530143491714E-15,-6.35000000000001));
#340=CARTESIAN_POINT('Origin',(67.,0.,-30.55));
#341=CARTESIAN_POINT('',(67.,-1.40834381901946E-15,-7.55000000000001));
#342=CARTESIAN_POINT('Origin',(67.,0.,-19.05));
#343=CARTESIAN_POINT('Origin',(64.5,0.,-19.05));
#344=CARTESIAN_POINT('',(64.5,-1.40834381901946E-15,-7.55000000000001));
#345=CARTESIAN_POINT('Origin',(-1.26033726636712E-14,0.,-31.75));
#346=CARTESIAN_POINT('',(-1.2490009027033E-14,-3.88825358729285E-15,31.75));
#347=CARTESIAN_POINT('Origin',(-1.2490009027033E-14,0.,0.));
#348=CARTESIAN_POINT('',(-1.13797860024079E-14,-3.64332422746338E-15,29.75));
#349=CARTESIAN_POINT('Origin',(-1.19348975147204E-14,0.,0.));
#350=CARTESIAN_POINT('Origin',(2.49999999999999,0.,0.));
#351=CARTESIAN_POINT('',(2.49999999999999,-3.88825358729285E-15,31.75));
#352=CARTESIAN_POINT('Origin',(2.49999999999999,0.,0.));
#353=CARTESIAN_POINT('',(2.49999999999999,-3.64332422746338E-15,29.75));
#354=UNCERTAINTY_MEASURE_WITH_UNIT(LENGTH_MEASURE(0.01),#358,
'DISTANCE_ACCURACY_VALUE',
'Maximum model space distance between geometric entities at asserted c
onnectivities');
#355=UNCERTAINTY_MEASURE_WITH_UNIT(LENGTH_MEASURE(0.01),#358,
'DISTANCE_ACCURACY_VALUE',
'Maximum model space distance between geometric entities at asserted c
onnectivities');
#356=(
GEOMETRIC_REPRESENTATION_CONTEXT(3)
GLOBAL_UNCERTAINTY_ASSIGNED_CONTEXT((#354))
GLOBAL_UNIT_ASSIGNED_CONTEXT((#358,#360,#361))
REPRESENTATION_CONTEXT('','3D')
);
#357=(
GEOMETRIC_REPRESENTATION_CONTEXT(3)
GLOBAL_UNCERTAINTY_ASSIGNED_CONTEXT((#355))
GLOBAL_UNIT_ASSIGNED_CONTEXT((#358,#360,#361))
REPRESENTATION_CONTEXT('','3D')
);
#358=(
LENGTH_UNIT()
NAMED_UNIT(*)
SI_UNIT(.MILLI.,.METRE.)
);
#359=(
LENGTH_UNIT()
NAMED_UNIT(*)
SI_UNIT(.CENTI.,.METRE.)
);
#360=(
NAMED_UNIT(*)
PLANE_ANGLE_UNIT()
SI_UNIT($,.RADIAN.)
);
#361=(
NAMED_UNIT(*)
SI_UNIT($,.STERADIAN.)
SOLID_ANGLE_UNIT()
);
#362=SHAPE_DEFINITION_REPRESENTATION(#363,#364);
#363=PRODUCT_DEFINITION_SHAPE('',$,#366);
#364=SHAPE_REPRESENTATION('',(#188),#356);
#365=PRODUCT_DEFINITION_CONTEXT('part definition',#370,'design');
#366=PRODUCT_DEFINITION('T14 25\X\D710','T14 25\X\D710',#367,#365);
#367=PRODUCT_DEFINITION_FORMATION('',$,#372);
#368=PRODUCT_RELATED_PRODUCT_CATEGORY('T14 25\X\D710','T14 25\X\D710',(#372));
#369=APPLICATION_PROTOCOL_DEFINITION('international standard',
'automotive_design',2009,#370);
#370=APPLICATION_CONTEXT(
'Core Data for Automotive Mechanical Design Process');
#371=PRODUCT_CONTEXT('part definition',#370,'mechanical');
#372=PRODUCT('T14 25\X\D710','T14 25\X\D710',$,(#371));
#373=PRESENTATION_STYLE_ASSIGNMENT((#374));
#374=SURFACE_STYLE_USAGE(.BOTH.,#377);
#375=SURFACE_STYLE_RENDERING_WITH_PROPERTIES($,#381,(#376));
#376=SURFACE_STYLE_TRANSPARENT(0.);
#377=SURFACE_SIDE_STYLE('',(#378,#375));
#378=SURFACE_STYLE_FILL_AREA(#379);
#379=FILL_AREA_STYLE('',(#380));
#380=FILL_AREA_STYLE_COLOUR('',#381);
#381=COLOUR_RGB('',0.749019607843137,0.749019607843137,0.749019607843137);
ENDSEC;
END-ISO-10303-21;
