ISO-10303-21;
HEADER;
/* Generated by software containing ST-Developer
 * from STEP Tools, Inc. (www.steptools.com) 
 */

FILE_DESCRIPTION(
/* description */ (''),
/* implementation_level */ '2;1');

FILE_NAME(
/* name */ 
'\\\\Tske00\\w\\Work\\TOSTE\\\X2\7D99624B\X0\\\02_\X2\6EB663A5\X0\\\\X2\6EB663A530EC30B830E530FC30B530FC\X0\\\
\X2\30A830AD30BB30F330C830EC30B830E530FC30B530FC\X0\\\T14 20\X\D710.st
p',
/* time_stamp */ '2022-04-12T11:36:18+09:00',
/* author */ ('3dcad-eng'),
/* organization */ (''),
/* preprocessor_version */ 'ST-DEVELOPER v18.1',
/* originating_system */ 'Autodesk Inventor 2022',
/* authorisation */ '');

FILE_SCHEMA (('AUTOMOTIVE_DESIGN { 1 0 10303 214 3 1 1 }'));
ENDSEC;

DATA;
#10=MECHANICAL_DESIGN_GEOMETRIC_PRESENTATION_REPRESENTATION('',(#13),#362);
#11=SHAPE_REPRESENTATION_RELATIONSHIP('SRR','None',#369,#12);
#12=ADVANCED_BREP_SHAPE_REPRESENTATION('',(#14),#361);
#13=STYLED_ITEM('',(#378),#14);
#14=MANIFOLD_SOLID_BREP('\X2\30BD30EA30C330C9\X0\1',#172);
#15=FACE_BOUND('',#46,.T.);
#16=PLANE('',#211);
#17=CONICAL_SURFACE('',#208,12.1000000601476,1.57034856338655);
#18=CONICAL_SURFACE('',#210,11.5011194085959,0.000447763408420949);
#19=LINE('',#343,#24);
#20=LINE('',#346,#25);
#21=LINE('',#349,#26);
#22=LINE('',#356,#27);
#23=LINE('',#358,#28);
#24=VECTOR('',#250,12.7);
#25=VECTOR('',#253,12.1000000601476);
#26=VECTOR('',#258,11.5011194085959);
#27=VECTOR('',#267,25.4);
#28=VECTOR('',#270,23.9);
#29=CYLINDRICAL_SURFACE('',#206,12.7);
#30=CYLINDRICAL_SURFACE('',#214,25.4);
#31=CYLINDRICAL_SURFACE('',#215,23.9);
#32=FACE_OUTER_BOUND('',#40,.T.);
#33=FACE_OUTER_BOUND('',#41,.T.);
#34=FACE_OUTER_BOUND('',#42,.T.);
#35=FACE_OUTER_BOUND('',#43,.T.);
#36=FACE_OUTER_BOUND('',#44,.T.);
#37=FACE_OUTER_BOUND('',#45,.T.);
#38=FACE_OUTER_BOUND('',#47,.T.);
#39=FACE_OUTER_BOUND('',#48,.T.);
#40=EDGE_LOOP('',(#112,#113,#114,#115,#116,#117,#118,#119,#120,#121));
#41=EDGE_LOOP('',(#122,#123,#124,#125,#126,#127,#128,#129));
#42=EDGE_LOOP('',(#130,#131,#132,#133,#134,#135));
#43=EDGE_LOOP('',(#136,#137,#138,#139));
#44=EDGE_LOOP('',(#140,#141,#142,#143,#144,#145,#146));
#45=EDGE_LOOP('',(#147));
#46=EDGE_LOOP('',(#148));
#47=EDGE_LOOP('',(#149,#150,#151,#152,#153,#154));
#48=EDGE_LOOP('',(#155,#156,#157,#158,#159,#160,#161));
#49=B_SPLINE_CURVE_WITH_KNOTS('',1,(#296,#297),.UNSPECIFIED.,.F.,.F.,(2,
2),(0.00942584632236887,2.49996724982364),.UNSPECIFIED.);
#50=B_SPLINE_CURVE_WITH_KNOTS('',1,(#333,#334),.UNSPECIFIED.,.F.,.F.,(2,
2),(-2.35526987358043,-0.00962616267681027),.UNSPECIFIED.);
#51=CIRCLE('',#192,23.9);
#52=CIRCLE('',#193,23.9);
#53=CIRCLE('',#194,11.5022386968965);
#54=CIRCLE('',#195,11.5022386968965);
#55=CIRCLE('',#196,11.5022386968965);
#56=CIRCLE('',#197,11.5022386968965);
#57=CIRCLE('',#198,23.9);
#58=CIRCLE('',#199,23.9);
#59=CIRCLE('',#200,12.7);
#60=CIRCLE('',#201,12.7);
#61=CIRCLE('',#202,12.7);
#62=CIRCLE('',#203,25.4);
#63=CIRCLE('',#204,25.4);
#64=CIRCLE('',#205,25.4);
#65=CIRCLE('',#207,12.7);
#66=CIRCLE('',#209,11.5000001202952);
#67=CIRCLE('',#212,25.4);
#68=CIRCLE('',#213,23.9);
#69=VERTEX_POINT('',#290);
#70=VERTEX_POINT('',#291);
#71=VERTEX_POINT('',#293);
#72=VERTEX_POINT('',#295);
#73=VERTEX_POINT('',#298);
#74=VERTEX_POINT('',#300);
#75=VERTEX_POINT('',#302);
#76=VERTEX_POINT('',#305);
#77=VERTEX_POINT('',#326);
#78=VERTEX_POINT('',#327);
#79=VERTEX_POINT('',#329);
#80=VERTEX_POINT('',#332);
#81=VERTEX_POINT('',#335);
#82=VERTEX_POINT('',#337);
#83=VERTEX_POINT('',#341);
#84=VERTEX_POINT('',#345);
#85=VERTEX_POINT('',#351);
#86=VERTEX_POINT('',#353);
#87=EDGE_CURVE('',#69,#70,#51,.T.);
#88=EDGE_CURVE('',#71,#69,#52,.T.);
#89=EDGE_CURVE('',#71,#72,#49,.T.);
#90=EDGE_CURVE('',#72,#73,#53,.T.);
#91=EDGE_CURVE('',#73,#74,#54,.T.);
#92=EDGE_CURVE('',#74,#75,#55,.T.);
#93=EDGE_CURVE('',#75,#72,#56,.T.);
#94=EDGE_CURVE('',#76,#71,#57,.T.);
#95=EDGE_CURVE('',#70,#76,#58,.T.);
#96=EDGE_CURVE('',#77,#78,#59,.T.);
#97=EDGE_CURVE('',#79,#77,#60,.T.);
#98=EDGE_CURVE('',#78,#79,#61,.T.);
#99=EDGE_CURVE('',#78,#80,#50,.T.);
#100=EDGE_CURVE('',#80,#81,#62,.T.);
#101=EDGE_CURVE('',#81,#82,#63,.T.);
#102=EDGE_CURVE('',#82,#80,#64,.T.);
#103=EDGE_CURVE('',#83,#83,#65,.T.);
#104=EDGE_CURVE('',#83,#79,#19,.T.);
#105=EDGE_CURVE('',#83,#84,#20,.T.);
#106=EDGE_CURVE('',#84,#84,#66,.T.);
#107=EDGE_CURVE('',#84,#75,#21,.T.);
#108=EDGE_CURVE('',#85,#85,#67,.T.);
#109=EDGE_CURVE('',#86,#86,#68,.T.);
#110=EDGE_CURVE('',#81,#85,#22,.T.);
#111=EDGE_CURVE('',#76,#86,#23,.T.);
#112=ORIENTED_EDGE('',*,*,#87,.F.);
#113=ORIENTED_EDGE('',*,*,#88,.F.);
#114=ORIENTED_EDGE('',*,*,#89,.T.);
#115=ORIENTED_EDGE('',*,*,#90,.T.);
#116=ORIENTED_EDGE('',*,*,#91,.T.);
#117=ORIENTED_EDGE('',*,*,#92,.T.);
#118=ORIENTED_EDGE('',*,*,#93,.T.);
#119=ORIENTED_EDGE('',*,*,#89,.F.);
#120=ORIENTED_EDGE('',*,*,#94,.F.);
#121=ORIENTED_EDGE('',*,*,#95,.F.);
#122=ORIENTED_EDGE('',*,*,#96,.F.);
#123=ORIENTED_EDGE('',*,*,#97,.F.);
#124=ORIENTED_EDGE('',*,*,#98,.F.);
#125=ORIENTED_EDGE('',*,*,#99,.T.);
#126=ORIENTED_EDGE('',*,*,#100,.T.);
#127=ORIENTED_EDGE('',*,*,#101,.T.);
#128=ORIENTED_EDGE('',*,*,#102,.T.);
#129=ORIENTED_EDGE('',*,*,#99,.F.);
#130=ORIENTED_EDGE('',*,*,#103,.F.);
#131=ORIENTED_EDGE('',*,*,#104,.T.);
#132=ORIENTED_EDGE('',*,*,#97,.T.);
#133=ORIENTED_EDGE('',*,*,#96,.T.);
#134=ORIENTED_EDGE('',*,*,#98,.T.);
#135=ORIENTED_EDGE('',*,*,#104,.F.);
#136=ORIENTED_EDGE('',*,*,#103,.T.);
#137=ORIENTED_EDGE('',*,*,#105,.T.);
#138=ORIENTED_EDGE('',*,*,#106,.F.);
#139=ORIENTED_EDGE('',*,*,#105,.F.);
#140=ORIENTED_EDGE('',*,*,#106,.T.);
#141=ORIENTED_EDGE('',*,*,#107,.T.);
#142=ORIENTED_EDGE('',*,*,#92,.F.);
#143=ORIENTED_EDGE('',*,*,#91,.F.);
#144=ORIENTED_EDGE('',*,*,#90,.F.);
#145=ORIENTED_EDGE('',*,*,#93,.F.);
#146=ORIENTED_EDGE('',*,*,#107,.F.);
#147=ORIENTED_EDGE('',*,*,#108,.F.);
#148=ORIENTED_EDGE('',*,*,#109,.T.);
#149=ORIENTED_EDGE('',*,*,#102,.F.);
#150=ORIENTED_EDGE('',*,*,#101,.F.);
#151=ORIENTED_EDGE('',*,*,#110,.T.);
#152=ORIENTED_EDGE('',*,*,#108,.T.);
#153=ORIENTED_EDGE('',*,*,#110,.F.);
#154=ORIENTED_EDGE('',*,*,#100,.F.);
#155=ORIENTED_EDGE('',*,*,#87,.T.);
#156=ORIENTED_EDGE('',*,*,#95,.T.);
#157=ORIENTED_EDGE('',*,*,#111,.T.);
#158=ORIENTED_EDGE('',*,*,#109,.F.);
#159=ORIENTED_EDGE('',*,*,#111,.F.);
#160=ORIENTED_EDGE('',*,*,#94,.T.);
#161=ORIENTED_EDGE('',*,*,#88,.T.);
#162=(
BOUNDED_SURFACE()
B_SPLINE_SURFACE(1,2,((#272,#273,#274,#275,#276,#277,#278,#279,#280),(#281,
#282,#283,#284,#285,#286,#287,#288,#289)),.UNSPECIFIED.,.F.,.T.,.F.)
B_SPLINE_SURFACE_WITH_KNOTS((2,2),(3,2,2,2,3),(-0.212941480102057,2.5987786099484),
(-3.14159265358979,-1.5707963267949,0.,1.5707963267949,3.14159265358979),
 .UNSPECIFIED.)
GEOMETRIC_REPRESENTATION_ITEM()
RATIONAL_B_SPLINE_SURFACE(((1.,0.707106781186548,1.,0.707106781186548,1.,
0.707106781186548,1.,0.707106781186548,1.),(1.,0.707106781186548,1.,0.707106781186548,
1.,0.707106781186548,1.,0.707106781186548,1.)))
REPRESENTATION_ITEM('')
SURFACE()
);
#163=(
BOUNDED_SURFACE()
B_SPLINE_SURFACE(1,2,((#308,#309,#310,#311,#312,#313,#314,#315,#316),(#317,
#318,#319,#320,#321,#322,#323,#324,#325)),.UNSPECIFIED.,.F.,.T.,.F.)
B_SPLINE_SURFACE_WITH_KNOTS((2,2),(3,2,2,2,3),(-0.212724608106098,2.45681909629508),
(-3.14159265358979,-1.5707963267949,0.,1.5707963267949,3.14159265358979),
 .UNSPECIFIED.)
GEOMETRIC_REPRESENTATION_ITEM()
RATIONAL_B_SPLINE_SURFACE(((1.,0.707106781186548,1.,0.707106781186548,1.,
0.707106781186548,1.,0.707106781186548,1.),(1.,0.707106781186548,1.,0.707106781186548,
1.,0.707106781186548,1.,0.707106781186548,1.)))
REPRESENTATION_ITEM('')
SURFACE()
);
#164=ADVANCED_FACE('',(#32),#162,.T.);
#165=ADVANCED_FACE('',(#33),#163,.F.);
#166=ADVANCED_FACE('',(#34),#29,.T.);
#167=ADVANCED_FACE('',(#35),#17,.F.);
#168=ADVANCED_FACE('',(#36),#18,.F.);
#169=ADVANCED_FACE('',(#37,#15),#16,.T.);
#170=ADVANCED_FACE('',(#38),#30,.T.);
#171=ADVANCED_FACE('',(#39),#31,.F.);
#172=CLOSED_SHELL('',(#164,#165,#166,#167,#168,#169,#170,#171));
#173=DERIVED_UNIT_ELEMENT(#175,1.);
#174=DERIVED_UNIT_ELEMENT(#364,-3.);
#175=(
MASS_UNIT()
NAMED_UNIT(*)
SI_UNIT($,.GRAM.)
);
#176=DERIVED_UNIT((#173,#174));
#177=MEASURE_REPRESENTATION_ITEM('density measure',
POSITIVE_RATIO_MEASURE(1.),#176);
#178=PROPERTY_DEFINITION_REPRESENTATION(#183,#180);
#179=PROPERTY_DEFINITION_REPRESENTATION(#184,#181);
#180=REPRESENTATION('material name',(#182),#361);
#181=REPRESENTATION('density',(#177),#361);
#182=DESCRIPTIVE_REPRESENTATION_ITEM('\X2\4E00822C\X0\','\X2\4E00822C\X0\');
#183=PROPERTY_DEFINITION('material property','material name',#371);
#184=PROPERTY_DEFINITION('material property','density of part',#371);
#185=DATE_TIME_ROLE('creation_date');
#186=APPLIED_DATE_AND_TIME_ASSIGNMENT(#187,#185,(#371));
#187=DATE_AND_TIME(#188,#189);
#188=CALENDAR_DATE(2022,29,3);
#189=LOCAL_TIME(0,0,0.,#190);
#190=COORDINATED_UNIVERSAL_TIME_OFFSET(0,0,.BEHIND.);
#191=AXIS2_PLACEMENT_3D('placement',#271,#216,#217);
#192=AXIS2_PLACEMENT_3D('',#292,#218,#219);
#193=AXIS2_PLACEMENT_3D('',#294,#220,#221);
#194=AXIS2_PLACEMENT_3D('',#299,#222,#223);
#195=AXIS2_PLACEMENT_3D('',#301,#224,#225);
#196=AXIS2_PLACEMENT_3D('',#303,#226,#227);
#197=AXIS2_PLACEMENT_3D('',#304,#228,#229);
#198=AXIS2_PLACEMENT_3D('',#306,#230,#231);
#199=AXIS2_PLACEMENT_3D('',#307,#232,#233);
#200=AXIS2_PLACEMENT_3D('',#328,#234,#235);
#201=AXIS2_PLACEMENT_3D('',#330,#236,#237);
#202=AXIS2_PLACEMENT_3D('',#331,#238,#239);
#203=AXIS2_PLACEMENT_3D('',#336,#240,#241);
#204=AXIS2_PLACEMENT_3D('',#338,#242,#243);
#205=AXIS2_PLACEMENT_3D('',#339,#244,#245);
#206=AXIS2_PLACEMENT_3D('',#340,#246,#247);
#207=AXIS2_PLACEMENT_3D('',#342,#248,#249);
#208=AXIS2_PLACEMENT_3D('',#344,#251,#252);
#209=AXIS2_PLACEMENT_3D('',#347,#254,#255);
#210=AXIS2_PLACEMENT_3D('',#348,#256,#257);
#211=AXIS2_PLACEMENT_3D('',#350,#259,#260);
#212=AXIS2_PLACEMENT_3D('',#352,#261,#262);
#213=AXIS2_PLACEMENT_3D('',#354,#263,#264);
#214=AXIS2_PLACEMENT_3D('',#355,#265,#266);
#215=AXIS2_PLACEMENT_3D('',#357,#268,#269);
#216=DIRECTION('axis',(0.,0.,1.));
#217=DIRECTION('refdir',(1.,0.,0.));
#218=DIRECTION('center_axis',(1.,0.,0.));
#219=DIRECTION('ref_axis',(0.,0.,-1.));
#220=DIRECTION('center_axis',(1.,0.,0.));
#221=DIRECTION('ref_axis',(0.,0.,-1.));
#222=DIRECTION('center_axis',(1.,0.,0.));
#223=DIRECTION('ref_axis',(0.,0.,-1.));
#224=DIRECTION('center_axis',(1.,0.,0.));
#225=DIRECTION('ref_axis',(0.,0.,-1.));
#226=DIRECTION('center_axis',(1.,0.,0.));
#227=DIRECTION('ref_axis',(0.,0.,-1.));
#228=DIRECTION('center_axis',(1.,0.,0.));
#229=DIRECTION('ref_axis',(0.,0.,-1.));
#230=DIRECTION('center_axis',(1.,0.,0.));
#231=DIRECTION('ref_axis',(0.,0.,-1.));
#232=DIRECTION('center_axis',(1.,0.,0.));
#233=DIRECTION('ref_axis',(0.,0.,-1.));
#234=DIRECTION('center_axis',(1.,0.,0.));
#235=DIRECTION('ref_axis',(0.,0.,-1.));
#236=DIRECTION('center_axis',(1.,0.,0.));
#237=DIRECTION('ref_axis',(0.,0.,-1.));
#238=DIRECTION('center_axis',(1.,0.,0.));
#239=DIRECTION('ref_axis',(0.,0.,-1.));
#240=DIRECTION('center_axis',(1.,0.,0.));
#241=DIRECTION('ref_axis',(0.,0.,-1.));
#242=DIRECTION('center_axis',(1.,0.,0.));
#243=DIRECTION('ref_axis',(0.,0.,-1.));
#244=DIRECTION('center_axis',(1.,0.,0.));
#245=DIRECTION('ref_axis',(0.,0.,-1.));
#246=DIRECTION('center_axis',(1.,0.,0.));
#247=DIRECTION('ref_axis',(0.,0.,-1.));
#248=DIRECTION('center_axis',(1.,0.,0.));
#249=DIRECTION('ref_axis',(0.,0.,-1.));
#250=DIRECTION('',(-1.,0.,0.));
#251=DIRECTION('center_axis',(1.,0.,0.));
#252=DIRECTION('ref_axis',(0.,0.,-1.));
#253=DIRECTION('',(-0.000447763393459273,1.22464667638137E-16,-0.999999899753967));
#254=DIRECTION('center_axis',(1.,0.,0.));
#255=DIRECTION('ref_axis',(0.,0.,-1.));
#256=DIRECTION('center_axis',(-1.,0.,0.));
#257=DIRECTION('ref_axis',(0.,0.,-1.));
#258=DIRECTION('',(-0.999999899753967,-5.48352006574652E-20,0.00044776339345878));
#259=DIRECTION('center_axis',(-1.,0.,0.));
#260=DIRECTION('ref_axis',(0.,0.,1.));
#261=DIRECTION('center_axis',(1.,0.,0.));
#262=DIRECTION('ref_axis',(0.,0.,-1.));
#263=DIRECTION('center_axis',(1.,0.,0.));
#264=DIRECTION('ref_axis',(0.,0.,-1.));
#265=DIRECTION('center_axis',(1.,0.,0.));
#266=DIRECTION('ref_axis',(0.,0.,-1.));
#267=DIRECTION('',(-1.,0.,0.));
#268=DIRECTION('center_axis',(1.,0.,0.));
#269=DIRECTION('ref_axis',(0.,0.,-1.));
#270=DIRECTION('',(-1.,0.,0.));
#271=CARTESIAN_POINT('',(0.,0.,0.));
#272=CARTESIAN_POINT('Ctrl Pts',(-0.0892298310614315,-24.9824196812619,
0.0269853016198102));
#273=CARTESIAN_POINT('Ctrl Pts',(-5.17845966212278,-24.9824196812616,-23.8460293967601));
#274=CARTESIAN_POINT('Ctrl Pts',(-5.17845966212272,3.11833623595725E-13,
-23.8460293967598));
#275=CARTESIAN_POINT('Ctrl Pts',(-5.17845966212265,24.9824196812622,-23.8460293967595));
#276=CARTESIAN_POINT('Ctrl Pts',(-0.0892298310613027,24.9824196812619,0.0269853016204261));
#277=CARTESIAN_POINT('Ctrl Pts',(5.00000000000004,24.9824196812616,23.9000000000003));
#278=CARTESIAN_POINT('Ctrl Pts',(4.99999999999998,-3.02951839398723E-13,
23.9));
#279=CARTESIAN_POINT('Ctrl Pts',(4.99999999999992,-24.9824196812622,23.8999999999997));
#280=CARTESIAN_POINT('Ctrl Pts',(-0.0892298310614315,-24.9824196812619,
0.0269853016198102));
#281=CARTESIAN_POINT('Ctrl Pts',(64.2614550873128,-10.99956978054,-13.6912413016605));
#282=CARTESIAN_POINT('Ctrl Pts',(62.0207058176193,-10.9995697805398,-24.202348488113));
#283=CARTESIAN_POINT('Ctrl Pts',(62.0207058176193,1.41142681521654E-13,
-24.2023484881129));
#284=CARTESIAN_POINT('Ctrl Pts',(62.0207058176194,10.9995697805401,-24.2023484881128));
#285=CARTESIAN_POINT('Ctrl Pts',(64.2614550873129,10.99956978054,-13.6912413016602));
#286=CARTESIAN_POINT('Ctrl Pts',(66.5022043570064,10.9995697805398,-3.1801341152076));
#287=CARTESIAN_POINT('Ctrl Pts',(66.5022043570064,-1.32260897324653E-13,
-3.18013411520774));
#288=CARTESIAN_POINT('Ctrl Pts',(66.5022043570064,-10.9995697805401,-3.18013411520787));
#289=CARTESIAN_POINT('Ctrl Pts',(64.2614550873128,-10.99956978054,-13.6912413016605));
#290=CARTESIAN_POINT('',(5.0000000000006,-5.1830656090451,-23.3312200900925));
#291=CARTESIAN_POINT('',(5.00000000000064,5.1830656090451,-23.3312200900925));
#292=CARTESIAN_POINT('Origin',(4.99999999999999,0.,0.));
#293=CARTESIAN_POINT('',(4.99999999999999,-23.876573847169,-1.0579325690638));
#294=CARTESIAN_POINT('Origin',(4.99999999999999,0.,0.));
#295=CARTESIAN_POINT('',(62.,-11.4909645043604,-13.2091461478909));
#296=CARTESIAN_POINT('Ctrl Pts',(4.99999999999999,-23.876573847169,-1.0579325690638));
#297=CARTESIAN_POINT('Ctrl Pts',(62.,-11.4909645043604,-13.2091461478909));
#298=CARTESIAN_POINT('',(61.9999999999968,-2.59629472921,-23.905389271215));
#299=CARTESIAN_POINT('Origin',(62.,0.,-12.7));
#300=CARTESIAN_POINT('',(61.9999999999968,2.59629472921,-23.905389271215));
#301=CARTESIAN_POINT('Origin',(62.,0.,-12.7));
#302=CARTESIAN_POINT('',(62.,-1.40861798031831E-15,-1.19776130310353));
#303=CARTESIAN_POINT('Origin',(62.,0.,-12.7));
#304=CARTESIAN_POINT('Origin',(62.,0.,-12.7));
#305=CARTESIAN_POINT('',(4.99999999999999,-2.92690584996218E-15,23.9));
#306=CARTESIAN_POINT('Origin',(4.99999999999999,0.,0.));
#307=CARTESIAN_POINT('Origin',(4.99999999999999,0.,0.));
#308=CARTESIAN_POINT('Ctrl Pts',(-0.403205045894792,26.5766193800839,5.25551824281933E-13));
#309=CARTESIAN_POINT('Ctrl Pts',(5.00000000000009,26.5766193800834,25.4000000000005));
#310=CARTESIAN_POINT('Ctrl Pts',(4.99999999999998,-5.24408173731037E-13,
25.4));
#311=CARTESIAN_POINT('Ctrl Pts',(4.99999999999987,-26.5766193800844,25.3999999999995));
#312=CARTESIAN_POINT('Ctrl Pts',(-0.403205045895013,-26.5766193800839,-5.15556710255711E-13));
#313=CARTESIAN_POINT('Ctrl Pts',(-5.8064100917899,-26.5766193800834,-25.4000000000005));
#314=CARTESIAN_POINT('Ctrl Pts',(-5.80641009178979,5.15526389534036E-13,
-25.4));
#315=CARTESIAN_POINT('Ctrl Pts',(-5.80641009178968,26.5766193800844,-25.3999999999995));
#316=CARTESIAN_POINT('Ctrl Pts',(-0.403205045894792,26.5766193800839,5.25551824281933E-13));
#317=CARTESIAN_POINT('Ctrl Pts',(64.4676832495183,12.1377363834971,-13.799634290136));
#318=CARTESIAN_POINT('Ctrl Pts',(66.9353664990365,12.1377363834969,-2.19926858027214));
#319=CARTESIAN_POINT('Ctrl Pts',(66.9353664990364,-2.42030190122751E-13,
-2.19926858027238));
#320=CARTESIAN_POINT('Ctrl Pts',(66.9353664990363,-12.1377363834974,-2.19926858027261));
#321=CARTESIAN_POINT('Ctrl Pts',(64.4676832495181,-12.1377363834971,-13.7996342901364));
#322=CARTESIAN_POINT('Ctrl Pts',(62.,-12.1377363834969,-25.4000000000002));
#323=CARTESIAN_POINT('Ctrl Pts',(62.,2.3314840592575E-13,-25.4));
#324=CARTESIAN_POINT('Ctrl Pts',(62.0000000000001,12.1377363834974,-25.3999999999998));
#325=CARTESIAN_POINT('Ctrl Pts',(64.4676832495183,12.1377363834971,-13.799634290136));
#326=CARTESIAN_POINT('',(62.,0.,-25.4));
#327=CARTESIAN_POINT('',(62.,12.6869903038408,-13.2746973379522));
#328=CARTESIAN_POINT('Origin',(62.,0.,-12.7));
#329=CARTESIAN_POINT('',(62.,-1.55530143491714E-15,-4.44089209850063E-15));
#330=CARTESIAN_POINT('Origin',(62.,0.,-12.7));
#331=CARTESIAN_POINT('Origin',(62.,0.,-12.7));
#332=CARTESIAN_POINT('',(4.99999999999999,25.3739806076816,-1.14939467590435));
#333=CARTESIAN_POINT('Ctrl Pts',(62.,12.6869903038408,-13.2746973379522));
#334=CARTESIAN_POINT('Ctrl Pts',(4.99999999999999,25.3739806076816,-1.14939467590436));
#335=CARTESIAN_POINT('',(4.99999999999999,-3.11060286983428E-15,25.4));
#336=CARTESIAN_POINT('Origin',(4.99999999999999,0.,0.));
#337=CARTESIAN_POINT('',(4.99999999999999,0.,-25.4));
#338=CARTESIAN_POINT('Origin',(4.99999999999999,0.,0.));
#339=CARTESIAN_POINT('Origin',(4.99999999999999,0.,0.));
#340=CARTESIAN_POINT('Origin',(64.5,0.,-12.7));
#341=CARTESIAN_POINT('',(67.,-1.55530143491714E-15,-4.44089209850063E-15));
#342=CARTESIAN_POINT('Origin',(67.,0.,-12.7));
#343=CARTESIAN_POINT('',(64.5,-1.55530143491714E-15,-4.44089209850063E-15));
#344=CARTESIAN_POINT('Origin',(66.9997313419639,0.,-12.7));
#345=CARTESIAN_POINT('',(66.9994626839278,-1.40834383375137E-15,-1.19999987970477));
#346=CARTESIAN_POINT('',(66.9997313419639,-1.48182263433426E-15,-0.599999939852385));
#347=CARTESIAN_POINT('Origin',(66.9994626839278,0.,-12.7));
#348=CARTESIAN_POINT('Origin',(64.4997313419639,0.,-12.7));
#349=CARTESIAN_POINT('',(64.4997313419639,-1.40848090703484E-15,-1.19888059140415));
#350=CARTESIAN_POINT('Origin',(-8.19604976026596E-15,0.,-25.4));
#351=CARTESIAN_POINT('',(-8.04911692853238E-15,-3.11060286983428E-15,25.4));
#352=CARTESIAN_POINT('Origin',(-8.32667268468867E-15,0.,0.));
#353=CARTESIAN_POINT('',(-7.49400541621981E-15,-2.92690584996218E-15,23.9));
#354=CARTESIAN_POINT('Origin',(-7.7715611723761E-15,0.,0.));
#355=CARTESIAN_POINT('Origin',(2.49999999999999,0.,0.));
#356=CARTESIAN_POINT('',(2.49999999999999,-3.11060286983428E-15,25.4));
#357=CARTESIAN_POINT('Origin',(2.49999999999999,0.,0.));
#358=CARTESIAN_POINT('',(2.49999999999999,-2.92690584996218E-15,23.9));
#359=UNCERTAINTY_MEASURE_WITH_UNIT(LENGTH_MEASURE(0.01),#363,
'DISTANCE_ACCURACY_VALUE',
'Maximum model space distance between geometric entities at asserted c
onnectivities');
#360=UNCERTAINTY_MEASURE_WITH_UNIT(LENGTH_MEASURE(0.01),#363,
'DISTANCE_ACCURACY_VALUE',
'Maximum model space distance between geometric entities at asserted c
onnectivities');
#361=(
GEOMETRIC_REPRESENTATION_CONTEXT(3)
GLOBAL_UNCERTAINTY_ASSIGNED_CONTEXT((#359))
GLOBAL_UNIT_ASSIGNED_CONTEXT((#363,#365,#366))
REPRESENTATION_CONTEXT('','3D')
);
#362=(
GEOMETRIC_REPRESENTATION_CONTEXT(3)
GLOBAL_UNCERTAINTY_ASSIGNED_CONTEXT((#360))
GLOBAL_UNIT_ASSIGNED_CONTEXT((#363,#365,#366))
REPRESENTATION_CONTEXT('','3D')
);
#363=(
LENGTH_UNIT()
NAMED_UNIT(*)
SI_UNIT(.MILLI.,.METRE.)
);
#364=(
LENGTH_UNIT()
NAMED_UNIT(*)
SI_UNIT(.CENTI.,.METRE.)
);
#365=(
NAMED_UNIT(*)
PLANE_ANGLE_UNIT()
SI_UNIT($,.RADIAN.)
);
#366=(
NAMED_UNIT(*)
SI_UNIT($,.STERADIAN.)
SOLID_ANGLE_UNIT()
);
#367=SHAPE_DEFINITION_REPRESENTATION(#368,#369);
#368=PRODUCT_DEFINITION_SHAPE('',$,#371);
#369=SHAPE_REPRESENTATION('',(#191),#361);
#370=PRODUCT_DEFINITION_CONTEXT('part definition',#375,'design');
#371=PRODUCT_DEFINITION('T14 20\X\D710','T14 20\X\D710',#372,#370);
#372=PRODUCT_DEFINITION_FORMATION('',$,#377);
#373=PRODUCT_RELATED_PRODUCT_CATEGORY('T14 20\X\D710','T14 20\X\D710',(#377));
#374=APPLICATION_PROTOCOL_DEFINITION('international standard',
'automotive_design',2009,#375);
#375=APPLICATION_CONTEXT(
'Core Data for Automotive Mechanical Design Process');
#376=PRODUCT_CONTEXT('part definition',#375,'mechanical');
#377=PRODUCT('T14 20\X\D710','T14 20\X\D710',$,(#376));
#378=PRESENTATION_STYLE_ASSIGNMENT((#379));
#379=SURFACE_STYLE_USAGE(.BOTH.,#382);
#380=SURFACE_STYLE_RENDERING_WITH_PROPERTIES($,#386,(#381));
#381=SURFACE_STYLE_TRANSPARENT(0.);
#382=SURFACE_SIDE_STYLE('',(#383,#380));
#383=SURFACE_STYLE_FILL_AREA(#384);
#384=FILL_AREA_STYLE('',(#385));
#385=FILL_AREA_STYLE_COLOUR('',#386);
#386=COLOUR_RGB('',0.749019607843137,0.749019607843137,0.749019607843137);
ENDSEC;
END-ISO-10303-21;
