ISO-10303-21;
HEADER;
/* Generated by software containing ST-Developer
 * from STEP Tools, Inc. (www.steptools.com) 
 */

FILE_DESCRIPTION(
/* description */ (''),
/* implementation_level */ '2;1');

FILE_NAME(
/* name */ 
'\\\\Tske00\\w\\Work\\TOSTE\\\X2\7D99624B\X0\\\02_\X2\6EB663A5\X0\\\\X2\6EB663A530EC30B830E530FC30B530FC\X0\\\
\X2\30A830AD30BB30F330C830EC30B830E530FC30B530FC\X0\\\T14 15\X\D704.st
p',
/* time_stamp */ '2022-04-12T11:36:17+09:00',
/* author */ ('3dcad-eng'),
/* organization */ (''),
/* preprocessor_version */ 'ST-DEVELOPER v18.1',
/* originating_system */ 'Autodesk Inventor 2022',
/* authorisation */ '');

FILE_SCHEMA (('AUTOMOTIVE_DESIGN { 1 0 10303 214 3 1 1 }'));
ENDSEC;

DATA;
#10=MECHANICAL_DESIGN_GEOMETRIC_PRESENTATION_REPRESENTATION('',(#13),#342);
#11=SHAPE_REPRESENTATION_RELATIONSHIP('SRR','None',#349,#12);
#12=ADVANCED_BREP_SHAPE_REPRESENTATION('',(#14),#341);
#13=STYLED_ITEM('',(#358),#14);
#14=MANIFOLD_SOLID_BREP('\X2\30BD30EA30C330C9\X0\1',#162);
#15=FACE_BOUND('',#46,.T.);
#16=PLANE('',#199);
#17=CONICAL_SURFACE('',#196,10.0250020338231,1.56857585785742);
#18=CONICAL_SURFACE('',#198,9.20333070887521,0.00222046893748437);
#19=LINE('',#323,#24);
#20=LINE('',#326,#25);
#21=LINE('',#329,#26);
#22=LINE('',#336,#27);
#23=LINE('',#338,#28);
#24=VECTOR('',#234,10.85);
#25=VECTOR('',#237,10.0250020338231);
#26=VECTOR('',#242,9.20333070887521);
#27=VECTOR('',#251,19.05);
#28=VECTOR('',#254,17.85);
#29=CYLINDRICAL_SURFACE('',#194,10.85);
#30=CYLINDRICAL_SURFACE('',#202,19.05);
#31=CYLINDRICAL_SURFACE('',#203,17.85);
#32=FACE_OUTER_BOUND('',#40,.T.);
#33=FACE_OUTER_BOUND('',#41,.T.);
#34=FACE_OUTER_BOUND('',#42,.T.);
#35=FACE_OUTER_BOUND('',#43,.T.);
#36=FACE_OUTER_BOUND('',#44,.T.);
#37=FACE_OUTER_BOUND('',#45,.T.);
#38=FACE_OUTER_BOUND('',#47,.T.);
#39=FACE_OUTER_BOUND('',#48,.T.);
#40=EDGE_LOOP('',(#106,#107,#108,#109,#110,#111,#112,#113));
#41=EDGE_LOOP('',(#114,#115,#116,#117,#118,#119,#120,#121));
#42=EDGE_LOOP('',(#122,#123,#124,#125,#126,#127));
#43=EDGE_LOOP('',(#128,#129,#130,#131));
#44=EDGE_LOOP('',(#132,#133,#134,#135,#136,#137));
#45=EDGE_LOOP('',(#138));
#46=EDGE_LOOP('',(#139));
#47=EDGE_LOOP('',(#140,#141,#142,#143,#144,#145));
#48=EDGE_LOOP('',(#146,#147,#148,#149,#150,#151));
#49=B_SPLINE_CURVE_WITH_KNOTS('',1,(#281,#282),.UNSPECIFIED.,.F.,.F.,(2,
2),(0.0174010766041633,1.81312611831826),.UNSPECIFIED.);
#50=B_SPLINE_CURVE_WITH_KNOTS('',1,(#312,#313),.UNSPECIFIED.,.F.,.F.,(2,
2),(-1.69427707461109,-0.0166773967055158),.UNSPECIFIED.);
#51=CIRCLE('',#182,17.85);
#52=CIRCLE('',#183,17.85);
#53=CIRCLE('',#184,17.85);
#54=CIRCLE('',#185,9.2066573501042);
#55=CIRCLE('',#186,9.2066573501042);
#56=CIRCLE('',#187,9.2066573501042);
#57=CIRCLE('',#188,10.85);
#58=CIRCLE('',#189,10.85);
#59=CIRCLE('',#190,19.05);
#60=CIRCLE('',#191,19.05);
#61=CIRCLE('',#192,19.05);
#62=CIRCLE('',#193,10.85);
#63=CIRCLE('',#195,10.85);
#64=CIRCLE('',#197,9.20000406764623);
#65=CIRCLE('',#200,19.05);
#66=CIRCLE('',#201,17.85);
#67=VERTEX_POINT('',#274);
#68=VERTEX_POINT('',#275);
#69=VERTEX_POINT('',#277);
#70=VERTEX_POINT('',#280);
#71=VERTEX_POINT('',#283);
#72=VERTEX_POINT('',#285);
#73=VERTEX_POINT('',#306);
#74=VERTEX_POINT('',#307);
#75=VERTEX_POINT('',#309);
#76=VERTEX_POINT('',#311);
#77=VERTEX_POINT('',#314);
#78=VERTEX_POINT('',#316);
#79=VERTEX_POINT('',#321);
#80=VERTEX_POINT('',#325);
#81=VERTEX_POINT('',#331);
#82=VERTEX_POINT('',#333);
#83=EDGE_CURVE('',#67,#68,#51,.T.);
#84=EDGE_CURVE('',#69,#67,#52,.T.);
#85=EDGE_CURVE('',#68,#69,#53,.T.);
#86=EDGE_CURVE('',#68,#70,#49,.T.);
#87=EDGE_CURVE('',#70,#71,#54,.T.);
#88=EDGE_CURVE('',#71,#72,#55,.T.);
#89=EDGE_CURVE('',#72,#70,#56,.T.);
#90=EDGE_CURVE('',#73,#74,#57,.T.);
#91=EDGE_CURVE('',#75,#73,#58,.T.);
#92=EDGE_CURVE('',#75,#76,#50,.T.);
#93=EDGE_CURVE('',#76,#77,#59,.T.);
#94=EDGE_CURVE('',#77,#78,#60,.T.);
#95=EDGE_CURVE('',#78,#76,#61,.T.);
#96=EDGE_CURVE('',#74,#75,#62,.T.);
#97=EDGE_CURVE('',#79,#79,#63,.T.);
#98=EDGE_CURVE('',#79,#74,#19,.T.);
#99=EDGE_CURVE('',#79,#80,#20,.T.);
#100=EDGE_CURVE('',#80,#80,#64,.T.);
#101=EDGE_CURVE('',#80,#71,#21,.T.);
#102=EDGE_CURVE('',#81,#81,#65,.T.);
#103=EDGE_CURVE('',#82,#82,#66,.T.);
#104=EDGE_CURVE('',#78,#81,#22,.T.);
#105=EDGE_CURVE('',#69,#82,#23,.T.);
#106=ORIENTED_EDGE('',*,*,#83,.F.);
#107=ORIENTED_EDGE('',*,*,#84,.F.);
#108=ORIENTED_EDGE('',*,*,#85,.F.);
#109=ORIENTED_EDGE('',*,*,#86,.T.);
#110=ORIENTED_EDGE('',*,*,#87,.T.);
#111=ORIENTED_EDGE('',*,*,#88,.T.);
#112=ORIENTED_EDGE('',*,*,#89,.T.);
#113=ORIENTED_EDGE('',*,*,#86,.F.);
#114=ORIENTED_EDGE('',*,*,#90,.F.);
#115=ORIENTED_EDGE('',*,*,#91,.F.);
#116=ORIENTED_EDGE('',*,*,#92,.T.);
#117=ORIENTED_EDGE('',*,*,#93,.T.);
#118=ORIENTED_EDGE('',*,*,#94,.T.);
#119=ORIENTED_EDGE('',*,*,#95,.T.);
#120=ORIENTED_EDGE('',*,*,#92,.F.);
#121=ORIENTED_EDGE('',*,*,#96,.F.);
#122=ORIENTED_EDGE('',*,*,#97,.F.);
#123=ORIENTED_EDGE('',*,*,#98,.T.);
#124=ORIENTED_EDGE('',*,*,#96,.T.);
#125=ORIENTED_EDGE('',*,*,#91,.T.);
#126=ORIENTED_EDGE('',*,*,#90,.T.);
#127=ORIENTED_EDGE('',*,*,#98,.F.);
#128=ORIENTED_EDGE('',*,*,#97,.T.);
#129=ORIENTED_EDGE('',*,*,#99,.T.);
#130=ORIENTED_EDGE('',*,*,#100,.F.);
#131=ORIENTED_EDGE('',*,*,#99,.F.);
#132=ORIENTED_EDGE('',*,*,#100,.T.);
#133=ORIENTED_EDGE('',*,*,#101,.T.);
#134=ORIENTED_EDGE('',*,*,#87,.F.);
#135=ORIENTED_EDGE('',*,*,#89,.F.);
#136=ORIENTED_EDGE('',*,*,#88,.F.);
#137=ORIENTED_EDGE('',*,*,#101,.F.);
#138=ORIENTED_EDGE('',*,*,#102,.F.);
#139=ORIENTED_EDGE('',*,*,#103,.T.);
#140=ORIENTED_EDGE('',*,*,#94,.F.);
#141=ORIENTED_EDGE('',*,*,#93,.F.);
#142=ORIENTED_EDGE('',*,*,#95,.F.);
#143=ORIENTED_EDGE('',*,*,#104,.T.);
#144=ORIENTED_EDGE('',*,*,#102,.T.);
#145=ORIENTED_EDGE('',*,*,#104,.F.);
#146=ORIENTED_EDGE('',*,*,#83,.T.);
#147=ORIENTED_EDGE('',*,*,#85,.T.);
#148=ORIENTED_EDGE('',*,*,#105,.T.);
#149=ORIENTED_EDGE('',*,*,#103,.F.);
#150=ORIENTED_EDGE('',*,*,#105,.F.);
#151=ORIENTED_EDGE('',*,*,#84,.T.);
#152=(
BOUNDED_SURFACE()
B_SPLINE_SURFACE(1,2,((#256,#257,#258,#259,#260,#261,#262,#263,#264),(#265,
#266,#267,#268,#269,#270,#271,#272,#273)),.UNSPECIFIED.,.F.,.T.,.F.)
B_SPLINE_SURFACE_WITH_KNOTS((2,2),(3,2,2,2,3),(-0.254625999653807,1.93548178114308),
(-3.14159265358979,-1.5707963267949,0.,1.5707963267949,3.14159265358979),
 .UNSPECIFIED.)
GEOMETRIC_REPRESENTATION_ITEM()
RATIONAL_B_SPLINE_SURFACE(((1.,0.707106781186548,1.,0.707106781186548,1.,
0.707106781186548,1.,0.707106781186548,1.),(1.,0.707106781186548,1.,0.707106781186548,
1.,0.707106781186548,1.,0.707106781186548,1.)))
REPRESENTATION_ITEM('')
SURFACE()
);
#153=(
BOUNDED_SURFACE()
B_SPLINE_SURFACE(1,2,((#288,#289,#290,#291,#292,#293,#294,#295,#296),(#297,
#298,#299,#300,#301,#302,#303,#304,#305)),.UNSPECIFIED.,.F.,.T.,.F.)
B_SPLINE_SURFACE_WITH_KNOTS((2,2),(3,2,2,2,3),(-0.255491282571522,1.83029443217782),
(-3.14159265358979,-1.5707963267949,0.,1.5707963267949,3.14159265358979),
 .UNSPECIFIED.)
GEOMETRIC_REPRESENTATION_ITEM()
RATIONAL_B_SPLINE_SURFACE(((1.,0.707106781186548,1.,0.707106781186548,1.,
0.707106781186548,1.,0.707106781186548,1.),(1.,0.707106781186548,1.,0.707106781186548,
1.,0.707106781186548,1.,0.707106781186548,1.)))
REPRESENTATION_ITEM('')
SURFACE()
);
#154=ADVANCED_FACE('',(#32),#152,.T.);
#155=ADVANCED_FACE('',(#33),#153,.F.);
#156=ADVANCED_FACE('',(#34),#29,.T.);
#157=ADVANCED_FACE('',(#35),#17,.F.);
#158=ADVANCED_FACE('',(#36),#18,.F.);
#159=ADVANCED_FACE('',(#37,#15),#16,.T.);
#160=ADVANCED_FACE('',(#38),#30,.T.);
#161=ADVANCED_FACE('',(#39),#31,.F.);
#162=CLOSED_SHELL('',(#154,#155,#156,#157,#158,#159,#160,#161));
#163=DERIVED_UNIT_ELEMENT(#165,1.);
#164=DERIVED_UNIT_ELEMENT(#344,-3.);
#165=(
MASS_UNIT()
NAMED_UNIT(*)
SI_UNIT($,.GRAM.)
);
#166=DERIVED_UNIT((#163,#164));
#167=MEASURE_REPRESENTATION_ITEM('density measure',
POSITIVE_RATIO_MEASURE(1.),#166);
#168=PROPERTY_DEFINITION_REPRESENTATION(#173,#170);
#169=PROPERTY_DEFINITION_REPRESENTATION(#174,#171);
#170=REPRESENTATION('material name',(#172),#341);
#171=REPRESENTATION('density',(#167),#341);
#172=DESCRIPTIVE_REPRESENTATION_ITEM('\X2\4E00822C\X0\','\X2\4E00822C\X0\');
#173=PROPERTY_DEFINITION('material property','material name',#351);
#174=PROPERTY_DEFINITION('material property','density of part',#351);
#175=DATE_TIME_ROLE('creation_date');
#176=APPLIED_DATE_AND_TIME_ASSIGNMENT(#177,#175,(#351));
#177=DATE_AND_TIME(#178,#179);
#178=CALENDAR_DATE(2022,29,3);
#179=LOCAL_TIME(0,0,0.,#180);
#180=COORDINATED_UNIVERSAL_TIME_OFFSET(0,0,.BEHIND.);
#181=AXIS2_PLACEMENT_3D('placement',#255,#204,#205);
#182=AXIS2_PLACEMENT_3D('',#276,#206,#207);
#183=AXIS2_PLACEMENT_3D('',#278,#208,#209);
#184=AXIS2_PLACEMENT_3D('',#279,#210,#211);
#185=AXIS2_PLACEMENT_3D('',#284,#212,#213);
#186=AXIS2_PLACEMENT_3D('',#286,#214,#215);
#187=AXIS2_PLACEMENT_3D('',#287,#216,#217);
#188=AXIS2_PLACEMENT_3D('',#308,#218,#219);
#189=AXIS2_PLACEMENT_3D('',#310,#220,#221);
#190=AXIS2_PLACEMENT_3D('',#315,#222,#223);
#191=AXIS2_PLACEMENT_3D('',#317,#224,#225);
#192=AXIS2_PLACEMENT_3D('',#318,#226,#227);
#193=AXIS2_PLACEMENT_3D('',#319,#228,#229);
#194=AXIS2_PLACEMENT_3D('',#320,#230,#231);
#195=AXIS2_PLACEMENT_3D('',#322,#232,#233);
#196=AXIS2_PLACEMENT_3D('',#324,#235,#236);
#197=AXIS2_PLACEMENT_3D('',#327,#238,#239);
#198=AXIS2_PLACEMENT_3D('',#328,#240,#241);
#199=AXIS2_PLACEMENT_3D('',#330,#243,#244);
#200=AXIS2_PLACEMENT_3D('',#332,#245,#246);
#201=AXIS2_PLACEMENT_3D('',#334,#247,#248);
#202=AXIS2_PLACEMENT_3D('',#335,#249,#250);
#203=AXIS2_PLACEMENT_3D('',#337,#252,#253);
#204=DIRECTION('axis',(0.,0.,1.));
#205=DIRECTION('refdir',(1.,0.,0.));
#206=DIRECTION('center_axis',(1.,0.,0.));
#207=DIRECTION('ref_axis',(0.,0.,-1.));
#208=DIRECTION('center_axis',(1.,0.,0.));
#209=DIRECTION('ref_axis',(0.,0.,-1.));
#210=DIRECTION('center_axis',(1.,0.,0.));
#211=DIRECTION('ref_axis',(0.,0.,-1.));
#212=DIRECTION('center_axis',(1.,0.,0.));
#213=DIRECTION('ref_axis',(0.,0.,-1.));
#214=DIRECTION('center_axis',(1.,0.,0.));
#215=DIRECTION('ref_axis',(0.,0.,-1.));
#216=DIRECTION('center_axis',(1.,0.,0.));
#217=DIRECTION('ref_axis',(0.,0.,-1.));
#218=DIRECTION('center_axis',(1.,0.,0.));
#219=DIRECTION('ref_axis',(0.,0.,-1.));
#220=DIRECTION('center_axis',(1.,0.,0.));
#221=DIRECTION('ref_axis',(0.,0.,-1.));
#222=DIRECTION('center_axis',(1.,0.,0.));
#223=DIRECTION('ref_axis',(0.,0.,-1.));
#224=DIRECTION('center_axis',(1.,0.,0.));
#225=DIRECTION('ref_axis',(0.,0.,-1.));
#226=DIRECTION('center_axis',(1.,0.,0.));
#227=DIRECTION('ref_axis',(0.,0.,-1.));
#228=DIRECTION('center_axis',(1.,0.,0.));
#229=DIRECTION('ref_axis',(0.,0.,-1.));
#230=DIRECTION('center_axis',(1.,0.,0.));
#231=DIRECTION('ref_axis',(0.,0.,-1.));
#232=DIRECTION('center_axis',(1.,0.,0.));
#233=DIRECTION('ref_axis',(0.,0.,-1.));
#234=DIRECTION('',(-1.,0.,0.));
#235=DIRECTION('center_axis',(1.,0.,0.));
#236=DIRECTION('ref_axis',(0.,0.,-1.));
#237=DIRECTION('',(-0.0022204671128214,1.22464378009891E-16,-0.999997534759862));
#238=DIRECTION('center_axis',(1.,0.,0.));
#239=DIRECTION('ref_axis',(0.,0.,-1.));
#240=DIRECTION('center_axis',(-1.,0.,0.));
#241=DIRECTION('ref_axis',(0.,0.,-1.));
#242=DIRECTION('',(-0.999997534759862,-2.71928794232823E-19,0.00222046711282102));
#243=DIRECTION('center_axis',(-1.,0.,0.));
#244=DIRECTION('ref_axis',(0.,0.,1.));
#245=DIRECTION('center_axis',(1.,0.,0.));
#246=DIRECTION('ref_axis',(0.,0.,-1.));
#247=DIRECTION('center_axis',(1.,0.,0.));
#248=DIRECTION('ref_axis',(0.,0.,-1.));
#249=DIRECTION('center_axis',(1.,0.,0.));
#250=DIRECTION('ref_axis',(0.,0.,-1.));
#251=DIRECTION('',(-1.,0.,0.));
#252=DIRECTION('center_axis',(1.,0.,0.));
#253=DIRECTION('ref_axis',(0.,0.,-1.));
#254=DIRECTION('',(-1.,0.,0.));
#255=CARTESIAN_POINT('',(0.,0.,0.));
#256=CARTESIAN_POINT('Ctrl Pts',(0.455422128574184,19.1145522849169,-0.0671601732060481));
#257=CARTESIAN_POINT('Ctrl Pts',(4.99999999999994,19.1145522849171,17.8499999999998));
#258=CARTESIAN_POINT('Ctrl Pts',(4.99999999999999,1.91378319325315E-13,
17.85));
#259=CARTESIAN_POINT('Ctrl Pts',(5.00000000000004,-19.1145522849167,17.8500000000002));
#260=CARTESIAN_POINT('Ctrl Pts',(0.455422128574282,-19.1145522849169,-0.0671601732056598));
#261=CARTESIAN_POINT('Ctrl Pts',(-4.08915574285147,-19.1145522849171,-17.9843203464115));
#262=CARTESIAN_POINT('Ctrl Pts',(-4.08915574285152,-1.95819211423816E-13,
-17.9843203464117));
#263=CARTESIAN_POINT('Ctrl Pts',(-4.08915574285157,19.1145522849167,-17.9843203464119));
#264=CARTESIAN_POINT('Ctrl Pts',(0.455422128574184,19.1145522849169,-0.0671601732060481));
#265=CARTESIAN_POINT('Ctrl Pts',(37.0441157746737,8.59757692724188,-9.34765808029631));
#266=CARTESIAN_POINT('Ctrl Pts',(39.0882315493474,8.59757692724197,-1.28865881048832));
#267=CARTESIAN_POINT('Ctrl Pts',(39.0882315493474,8.5284531313294E-14,-1.28865881048823));
#268=CARTESIAN_POINT('Ctrl Pts',(39.0882315493474,-8.5975769272418,-1.28865881048815));
#269=CARTESIAN_POINT('Ctrl Pts',(37.0441157746737,-8.59757692724189,-9.34765808029613));
#270=CARTESIAN_POINT('Ctrl Pts',(35.,-8.59757692724197,-17.4066573501041));
#271=CARTESIAN_POINT('Ctrl Pts',(35.,-8.97254234117946E-14,-17.4066573501042));
#272=CARTESIAN_POINT('Ctrl Pts',(35.,8.59757692724179,-17.4066573501043));
#273=CARTESIAN_POINT('Ctrl Pts',(37.0441157746737,8.59757692724188,-9.34765808029631));
#274=CARTESIAN_POINT('',(5.,0.,-17.85));
#275=CARTESIAN_POINT('',(5.,17.8082686021182,-1.21986449854541));
#276=CARTESIAN_POINT('Origin',(5.,0.,0.));
#277=CARTESIAN_POINT('',(5.,-2.18599453647803E-15,17.85));
#278=CARTESIAN_POINT('Origin',(5.,0.,0.));
#279=CARTESIAN_POINT('Origin',(5.,0.,0.));
#280=CARTESIAN_POINT('',(35.,9.18513316629251,-8.82918064154982));
#281=CARTESIAN_POINT('Ctrl Pts',(5.,17.8082686021182,-1.21986449854542));
#282=CARTESIAN_POINT('Ctrl Pts',(35.,9.18513316629251,-8.82918064154983));
#283=CARTESIAN_POINT('',(35.,-1.12749034546516E-15,1.0066573501042));
#284=CARTESIAN_POINT('Origin',(35.,0.,-8.2));
#285=CARTESIAN_POINT('',(35.,0.,-17.4066573501042));
#286=CARTESIAN_POINT('Origin',(35.,0.,-8.2));
#287=CARTESIAN_POINT('Origin',(35.,0.,-8.2));
#288=CARTESIAN_POINT('Ctrl Pts',(0.132891067012519,-20.3368771552599,1.05614427722083E-13));
#289=CARTESIAN_POINT('Ctrl Pts',(-4.73421786597498,-20.33687715526,-19.0499999999999));
#290=CARTESIAN_POINT('Ctrl Pts',(-4.734217865975,-1.01258522113822E-13,
-19.05));
#291=CARTESIAN_POINT('Ctrl Pts',(-4.73421786597503,20.3368771552598,-19.0500000000001));
#292=CARTESIAN_POINT('Ctrl Pts',(0.132891067012467,20.3368771552599,-1.02001740387436E-13));
#293=CARTESIAN_POINT('Ctrl Pts',(4.99999999999996,20.33687715526,19.0499999999999));
#294=CARTESIAN_POINT('Ctrl Pts',(4.99999999999999,1.05699414212322E-13,
19.05));
#295=CARTESIAN_POINT('Ctrl Pts',(5.00000000000001,-20.3368771552598,19.0500000000001));
#296=CARTESIAN_POINT('Ctrl Pts',(0.132891067012519,-20.3368771552599,1.05614427722083E-13));
#297=CARTESIAN_POINT('Ctrl Pts',(37.4323566466681,-10.1634335705539,-9.52968830017849));
#298=CARTESIAN_POINT('Ctrl Pts',(35.,-10.163433570554,-19.0499999999999));
#299=CARTESIAN_POINT('Ctrl Pts',(35.,-4.98575365216765E-14,-19.05));
#300=CARTESIAN_POINT('Ctrl Pts',(35.,10.1634335705539,-19.0500000000001));
#301=CARTESIAN_POINT('Ctrl Pts',(37.432356646668,10.1634335705539,-9.52968830017859));
#302=CARTESIAN_POINT('Ctrl Pts',(39.8647132933361,10.163433570554,-0.00937660035712745));
#303=CARTESIAN_POINT('Ctrl Pts',(39.8647132933361,5.42984286201772E-14,
-0.00937660035707312));
#304=CARTESIAN_POINT('Ctrl Pts',(39.8647132933361,-10.1634335705539,-0.00937660035702309));
#305=CARTESIAN_POINT('Ctrl Pts',(37.4323566466681,-10.1634335705539,-9.52968830017849));
#306=CARTESIAN_POINT('',(35.,0.,-19.05));
#307=CARTESIAN_POINT('',(35.,-1.32874177707488E-15,2.65));
#308=CARTESIAN_POINT('Origin',(35.,0.,-8.2));
#309=CARTESIAN_POINT('',(35.,-10.8268597815788,-8.90824238084989));
#310=CARTESIAN_POINT('Origin',(35.,0.,-8.2));
#311=CARTESIAN_POINT('',(4.99999999999999,-19.0093713215738,-1.24350390370419));
#312=CARTESIAN_POINT('Ctrl Pts',(35.,-10.8268597815788,-8.90824238084989));
#313=CARTESIAN_POINT('Ctrl Pts',(4.99999999999999,-19.0093713215738,-1.24350390370418));
#314=CARTESIAN_POINT('',(4.99999999999999,0.,-19.05));
#315=CARTESIAN_POINT('Origin',(4.99999999999999,0.,0.));
#316=CARTESIAN_POINT('',(4.99999999999999,-2.33295215237571E-15,19.05));
#317=CARTESIAN_POINT('Origin',(4.99999999999999,0.,0.));
#318=CARTESIAN_POINT('Origin',(4.99999999999999,0.,0.));
#319=CARTESIAN_POINT('Origin',(35.,0.,-8.2));
#320=CARTESIAN_POINT('Origin',(36.5,0.,-8.2));
#321=CARTESIAN_POINT('',(38.,-1.32874177707488E-15,2.65));
#322=CARTESIAN_POINT('Origin',(38.,0.,-8.2));
#323=CARTESIAN_POINT('',(36.5,-1.32874177707488E-15,2.65));
#324=CARTESIAN_POINT('Origin',(37.9981681146319,0.,-8.2));
#325=CARTESIAN_POINT('',(37.9963362292638,-1.12667555335856E-15,1.00000406764622));
#326=CARTESIAN_POINT('',(37.9981681146319,-1.22770866521672E-15,1.82500203382311));
#327=CARTESIAN_POINT('Origin',(37.9963362292638,0.,-8.2));
#328=CARTESIAN_POINT('Origin',(36.4981681146319,0.,-8.2));
#329=CARTESIAN_POINT('',(36.4981681146319,-1.12708294941186E-15,1.00333070887521));
#330=CARTESIAN_POINT('Origin',(-4.51414227183724E-15,0.,-19.05));
#331=CARTESIAN_POINT('',(-4.44089209850063E-15,-2.33295215237571E-15,19.05));
#332=CARTESIAN_POINT('Origin',(-4.44089209850063E-15,0.,0.));
#333=CARTESIAN_POINT('',(-4.16333634234434E-15,-2.18599453647803E-15,17.85));
#334=CARTESIAN_POINT('Origin',(-4.16333634234434E-15,0.,0.));
#335=CARTESIAN_POINT('Origin',(2.5,0.,0.));
#336=CARTESIAN_POINT('',(2.5,-2.33295215237571E-15,19.05));
#337=CARTESIAN_POINT('Origin',(2.5,0.,0.));
#338=CARTESIAN_POINT('',(2.5,-2.18599453647803E-15,17.85));
#339=UNCERTAINTY_MEASURE_WITH_UNIT(LENGTH_MEASURE(0.01),#343,
'DISTANCE_ACCURACY_VALUE',
'Maximum model space distance between geometric entities at asserted c
onnectivities');
#340=UNCERTAINTY_MEASURE_WITH_UNIT(LENGTH_MEASURE(0.01),#343,
'DISTANCE_ACCURACY_VALUE',
'Maximum model space distance between geometric entities at asserted c
onnectivities');
#341=(
GEOMETRIC_REPRESENTATION_CONTEXT(3)
GLOBAL_UNCERTAINTY_ASSIGNED_CONTEXT((#339))
GLOBAL_UNIT_ASSIGNED_CONTEXT((#343,#345,#346))
REPRESENTATION_CONTEXT('','3D')
);
#342=(
GEOMETRIC_REPRESENTATION_CONTEXT(3)
GLOBAL_UNCERTAINTY_ASSIGNED_CONTEXT((#340))
GLOBAL_UNIT_ASSIGNED_CONTEXT((#343,#345,#346))
REPRESENTATION_CONTEXT('','3D')
);
#343=(
LENGTH_UNIT()
NAMED_UNIT(*)
SI_UNIT(.MILLI.,.METRE.)
);
#344=(
LENGTH_UNIT()
NAMED_UNIT(*)
SI_UNIT(.CENTI.,.METRE.)
);
#345=(
NAMED_UNIT(*)
PLANE_ANGLE_UNIT()
SI_UNIT($,.RADIAN.)
);
#346=(
NAMED_UNIT(*)
SI_UNIT($,.STERADIAN.)
SOLID_ANGLE_UNIT()
);
#347=SHAPE_DEFINITION_REPRESENTATION(#348,#349);
#348=PRODUCT_DEFINITION_SHAPE('',$,#351);
#349=SHAPE_REPRESENTATION('',(#181),#341);
#350=PRODUCT_DEFINITION_CONTEXT('part definition',#355,'design');
#351=PRODUCT_DEFINITION('T14 15\X\D704','T14 15\X\D704',#352,#350);
#352=PRODUCT_DEFINITION_FORMATION('',$,#357);
#353=PRODUCT_RELATED_PRODUCT_CATEGORY('T14 15\X\D704','T14 15\X\D704',(#357));
#354=APPLICATION_PROTOCOL_DEFINITION('international standard',
'automotive_design',2009,#355);
#355=APPLICATION_CONTEXT(
'Core Data for Automotive Mechanical Design Process');
#356=PRODUCT_CONTEXT('part definition',#355,'mechanical');
#357=PRODUCT('T14 15\X\D704','T14 15\X\D704',$,(#356));
#358=PRESENTATION_STYLE_ASSIGNMENT((#359));
#359=SURFACE_STYLE_USAGE(.BOTH.,#362);
#360=SURFACE_STYLE_RENDERING_WITH_PROPERTIES($,#366,(#361));
#361=SURFACE_STYLE_TRANSPARENT(0.);
#362=SURFACE_SIDE_STYLE('',(#363,#360));
#363=SURFACE_STYLE_FILL_AREA(#364);
#364=FILL_AREA_STYLE('',(#365));
#365=FILL_AREA_STYLE_COLOUR('',#366);
#366=COLOUR_RGB('',0.749019607843137,0.749019607843137,0.749019607843137);
ENDSEC;
END-ISO-10303-21;
