ISO-10303-21;
HEADER;
/* Generated by software containing ST-Developer
 * from STEP Tools, Inc. (www.steptools.com) 
 */

FILE_DESCRIPTION(
/* description */ (''),
/* implementation_level */ '2;1');

FILE_NAME(
/* name */ 
'\\\\Tske00\\w\\Work\\TOSTE\\\X2\7D99624B\X0\\\02_\X2\6EB663A5\X0\\\\X2\6EB663A530EC30B830E530FC30B530FC\X0\\\
\X2\30A830AD30BB30F330C830EC30B830E530FC30B530FC\X0\\\T14 10\X\D703.st
p',
/* time_stamp */ '2022-04-12T11:36:16+09:00',
/* author */ ('3dcad-eng'),
/* organization */ (''),
/* preprocessor_version */ 'ST-DEVELOPER v18.1',
/* originating_system */ 'Autodesk Inventor 2022',
/* authorisation */ '');

FILE_SCHEMA (('AUTOMOTIVE_DESIGN { 1 0 10303 214 3 1 1 }','AP242_MANAGED_MODEL_BASED_3D_ENGINEERING_MIM_LF { 1 0 10303 442 1 1 4 }'));
ENDSEC;

DATA;
#10=MECHANICAL_DESIGN_GEOMETRIC_PRESENTATION_REPRESENTATION('',(#13),#337);
#11=SHAPE_REPRESENTATION_RELATIONSHIP('SRR','None',#344,#12);
#12=ADVANCED_BREP_SHAPE_REPRESENTATION('',(#14),#336);
#13=STYLED_ITEM('',(#353),#14);
#14=MANIFOLD_SOLID_BREP('\X2\30BD30EA30C330C9\X0\1',#159);
#15=FACE_BOUND('',#43,.T.);
#16=FACE_BOUND('',#46,.T.);
#17=PLANE('',#193);
#18=PLANE('',#196);
#19=LINE('',#319,#23);
#20=LINE('',#324,#24);
#21=LINE('',#331,#25);
#22=LINE('',#333,#26);
#23=VECTOR('',#231,8.65);
#24=VECTOR('',#238,7.);
#25=VECTOR('',#247,12.7);
#26=VECTOR('',#250,11.05);
#27=CYLINDRICAL_SURFACE('',#191,8.65);
#28=CYLINDRICAL_SURFACE('',#195,7.);
#29=CYLINDRICAL_SURFACE('',#199,12.7);
#30=CYLINDRICAL_SURFACE('',#200,11.05);
#31=FACE_OUTER_BOUND('',#39,.T.);
#32=FACE_OUTER_BOUND('',#40,.T.);
#33=FACE_OUTER_BOUND('',#41,.T.);
#34=FACE_OUTER_BOUND('',#42,.T.);
#35=FACE_OUTER_BOUND('',#44,.T.);
#36=FACE_OUTER_BOUND('',#45,.T.);
#37=FACE_OUTER_BOUND('',#47,.T.);
#38=FACE_OUTER_BOUND('',#48,.T.);
#39=EDGE_LOOP('',(#105,#106,#107,#108,#109,#110,#111,#112));
#40=EDGE_LOOP('',(#113,#114,#115,#116,#117,#118,#119,#120));
#41=EDGE_LOOP('',(#121,#122,#123,#124,#125,#126));
#42=EDGE_LOOP('',(#127));
#43=EDGE_LOOP('',(#128));
#44=EDGE_LOOP('',(#129,#130,#131,#132,#133,#134));
#45=EDGE_LOOP('',(#135));
#46=EDGE_LOOP('',(#136));
#47=EDGE_LOOP('',(#137,#138,#139,#140,#141,#142));
#48=EDGE_LOOP('',(#143,#144,#145,#146,#147,#148));
#49=B_SPLINE_CURVE_WITH_KNOTS('',1,(#276,#277),.UNSPECIFIED.,.F.,.F.,(2,
2),(0.00284741223356949,2.58768932277357),.UNSPECIFIED.);
#50=B_SPLINE_CURVE_WITH_KNOTS('',1,(#308,#309),.UNSPECIFIED.,.F.,.F.,(2,
2),(-2.25186340526246,-0.00284741223356394),.UNSPECIFIED.);
#51=CIRCLE('',#179,11.05);
#52=CIRCLE('',#180,11.05);
#53=CIRCLE('',#181,7.);
#54=CIRCLE('',#182,7.);
#55=CIRCLE('',#183,7.);
#56=CIRCLE('',#184,11.05);
#57=CIRCLE('',#185,8.65);
#58=CIRCLE('',#186,8.65);
#59=CIRCLE('',#187,12.7);
#60=CIRCLE('',#188,12.7);
#61=CIRCLE('',#189,12.7);
#62=CIRCLE('',#190,8.65);
#63=CIRCLE('',#192,8.65);
#64=CIRCLE('',#194,7.);
#65=CIRCLE('',#197,12.7);
#66=CIRCLE('',#198,11.05);
#67=VERTEX_POINT('',#270);
#68=VERTEX_POINT('',#271);
#69=VERTEX_POINT('',#273);
#70=VERTEX_POINT('',#275);
#71=VERTEX_POINT('',#278);
#72=VERTEX_POINT('',#280);
#73=VERTEX_POINT('',#302);
#74=VERTEX_POINT('',#303);
#75=VERTEX_POINT('',#305);
#76=VERTEX_POINT('',#307);
#77=VERTEX_POINT('',#310);
#78=VERTEX_POINT('',#312);
#79=VERTEX_POINT('',#317);
#80=VERTEX_POINT('',#321);
#81=VERTEX_POINT('',#326);
#82=VERTEX_POINT('',#328);
#83=EDGE_CURVE('',#67,#68,#51,.T.);
#84=EDGE_CURVE('',#69,#67,#52,.T.);
#85=EDGE_CURVE('',#69,#70,#49,.T.);
#86=EDGE_CURVE('',#70,#71,#53,.T.);
#87=EDGE_CURVE('',#71,#72,#54,.T.);
#88=EDGE_CURVE('',#72,#70,#55,.T.);
#89=EDGE_CURVE('',#68,#69,#56,.T.);
#90=EDGE_CURVE('',#73,#74,#57,.T.);
#91=EDGE_CURVE('',#75,#73,#58,.T.);
#92=EDGE_CURVE('',#75,#76,#50,.T.);
#93=EDGE_CURVE('',#76,#77,#59,.T.);
#94=EDGE_CURVE('',#77,#78,#60,.T.);
#95=EDGE_CURVE('',#78,#76,#61,.T.);
#96=EDGE_CURVE('',#74,#75,#62,.T.);
#97=EDGE_CURVE('',#79,#79,#63,.T.);
#98=EDGE_CURVE('',#79,#74,#19,.T.);
#99=EDGE_CURVE('',#80,#80,#64,.T.);
#100=EDGE_CURVE('',#80,#72,#20,.T.);
#101=EDGE_CURVE('',#81,#81,#65,.T.);
#102=EDGE_CURVE('',#82,#82,#66,.T.);
#103=EDGE_CURVE('',#78,#81,#21,.T.);
#104=EDGE_CURVE('',#68,#82,#22,.T.);
#105=ORIENTED_EDGE('',*,*,#83,.F.);
#106=ORIENTED_EDGE('',*,*,#84,.F.);
#107=ORIENTED_EDGE('',*,*,#85,.T.);
#108=ORIENTED_EDGE('',*,*,#86,.T.);
#109=ORIENTED_EDGE('',*,*,#87,.T.);
#110=ORIENTED_EDGE('',*,*,#88,.T.);
#111=ORIENTED_EDGE('',*,*,#85,.F.);
#112=ORIENTED_EDGE('',*,*,#89,.F.);
#113=ORIENTED_EDGE('',*,*,#90,.F.);
#114=ORIENTED_EDGE('',*,*,#91,.F.);
#115=ORIENTED_EDGE('',*,*,#92,.T.);
#116=ORIENTED_EDGE('',*,*,#93,.T.);
#117=ORIENTED_EDGE('',*,*,#94,.T.);
#118=ORIENTED_EDGE('',*,*,#95,.T.);
#119=ORIENTED_EDGE('',*,*,#92,.F.);
#120=ORIENTED_EDGE('',*,*,#96,.F.);
#121=ORIENTED_EDGE('',*,*,#97,.F.);
#122=ORIENTED_EDGE('',*,*,#98,.T.);
#123=ORIENTED_EDGE('',*,*,#96,.T.);
#124=ORIENTED_EDGE('',*,*,#91,.T.);
#125=ORIENTED_EDGE('',*,*,#90,.T.);
#126=ORIENTED_EDGE('',*,*,#98,.F.);
#127=ORIENTED_EDGE('',*,*,#97,.T.);
#128=ORIENTED_EDGE('',*,*,#99,.F.);
#129=ORIENTED_EDGE('',*,*,#99,.T.);
#130=ORIENTED_EDGE('',*,*,#100,.T.);
#131=ORIENTED_EDGE('',*,*,#87,.F.);
#132=ORIENTED_EDGE('',*,*,#86,.F.);
#133=ORIENTED_EDGE('',*,*,#88,.F.);
#134=ORIENTED_EDGE('',*,*,#100,.F.);
#135=ORIENTED_EDGE('',*,*,#101,.F.);
#136=ORIENTED_EDGE('',*,*,#102,.T.);
#137=ORIENTED_EDGE('',*,*,#94,.F.);
#138=ORIENTED_EDGE('',*,*,#93,.F.);
#139=ORIENTED_EDGE('',*,*,#95,.F.);
#140=ORIENTED_EDGE('',*,*,#103,.T.);
#141=ORIENTED_EDGE('',*,*,#101,.T.);
#142=ORIENTED_EDGE('',*,*,#103,.F.);
#143=ORIENTED_EDGE('',*,*,#83,.T.);
#144=ORIENTED_EDGE('',*,*,#104,.T.);
#145=ORIENTED_EDGE('',*,*,#102,.F.);
#146=ORIENTED_EDGE('',*,*,#104,.F.);
#147=ORIENTED_EDGE('',*,*,#89,.T.);
#148=ORIENTED_EDGE('',*,*,#84,.T.);
#149=(
BOUNDED_SURFACE()
B_SPLINE_SURFACE(1,2,((#252,#253,#254,#255,#256,#257,#258,#259,#260),(#261,
#262,#263,#264,#265,#266,#267,#268,#269)),.UNSPECIFIED.,.F.,.T.,.F.)
B_SPLINE_SURFACE_WITH_KNOTS((2,2),(3,2,2,2,3),(-0.141737069385917,2.67567372096963),
(-3.14159265358979,-1.5707963267949,0.,1.5707963267949,3.14159265358979),
 .UNSPECIFIED.)
GEOMETRIC_REPRESENTATION_ITEM()
RATIONAL_B_SPLINE_SURFACE(((1.,0.707106781186548,1.,0.707106781186548,1.,
0.707106781186548,1.,0.707106781186548,1.),(1.,0.707106781186548,1.,0.707106781186548,
1.,0.707106781186548,1.,0.707106781186548,1.)))
REPRESENTATION_ITEM('')
SURFACE()
);
#150=(
BOUNDED_SURFACE()
B_SPLINE_SURFACE(1,2,((#284,#285,#286,#287,#288,#289,#290,#291,#292),(#293,
#294,#295,#296,#297,#298,#299,#300,#301)),.UNSPECIFIED.,.F.,.T.,.F.)
B_SPLINE_SURFACE_WITH_KNOTS((2,2),(3,2,2,2,3),(-0.141737069385917,2.34646147883474),
(-3.14159265358979,-1.5707963267949,0.,1.5707963267949,3.14159265358979),
 .UNSPECIFIED.)
GEOMETRIC_REPRESENTATION_ITEM()
RATIONAL_B_SPLINE_SURFACE(((1.,0.707106781186548,1.,0.707106781186548,1.,
0.707106781186548,1.,0.707106781186548,1.),(1.,0.707106781186548,1.,0.707106781186548,
1.,0.707106781186548,1.,0.707106781186548,1.)))
REPRESENTATION_ITEM('')
SURFACE()
);
#151=ADVANCED_FACE('',(#31),#149,.T.);
#152=ADVANCED_FACE('',(#32),#150,.F.);
#153=ADVANCED_FACE('',(#33),#27,.T.);
#154=ADVANCED_FACE('',(#34,#15),#17,.T.);
#155=ADVANCED_FACE('',(#35),#28,.F.);
#156=ADVANCED_FACE('',(#36,#16),#18,.T.);
#157=ADVANCED_FACE('',(#37),#29,.T.);
#158=ADVANCED_FACE('',(#38),#30,.F.);
#159=CLOSED_SHELL('',(#151,#152,#153,#154,#155,#156,#157,#158));
#160=DERIVED_UNIT_ELEMENT(#162,1.);
#161=DERIVED_UNIT_ELEMENT(#339,-3.);
#162=(
MASS_UNIT()
NAMED_UNIT(*)
SI_UNIT($,.GRAM.)
);
#163=DERIVED_UNIT((#160,#161));
#164=MEASURE_REPRESENTATION_ITEM('density measure',
POSITIVE_RATIO_MEASURE(1.),#163);
#165=PROPERTY_DEFINITION_REPRESENTATION(#170,#167);
#166=PROPERTY_DEFINITION_REPRESENTATION(#171,#168);
#167=REPRESENTATION('material name',(#169),#336);
#168=REPRESENTATION('density',(#164),#336);
#169=DESCRIPTIVE_REPRESENTATION_ITEM('\X2\4E00822C\X0\','\X2\4E00822C\X0\');
#170=PROPERTY_DEFINITION('material property','material name',#346);
#171=PROPERTY_DEFINITION('material property','density of part',#346);
#172=DATE_TIME_ROLE('creation_date');
#173=APPLIED_DATE_AND_TIME_ASSIGNMENT(#174,#172,(#346));
#174=DATE_AND_TIME(#175,#176);
#175=CALENDAR_DATE(2022,29,3);
#176=LOCAL_TIME(0,0,0.,#177);
#177=COORDINATED_UNIVERSAL_TIME_OFFSET(0,0,.BEHIND.);
#178=AXIS2_PLACEMENT_3D('placement',#251,#201,#202);
#179=AXIS2_PLACEMENT_3D('',#272,#203,#204);
#180=AXIS2_PLACEMENT_3D('',#274,#205,#206);
#181=AXIS2_PLACEMENT_3D('',#279,#207,#208);
#182=AXIS2_PLACEMENT_3D('',#281,#209,#210);
#183=AXIS2_PLACEMENT_3D('',#282,#211,#212);
#184=AXIS2_PLACEMENT_3D('',#283,#213,#214);
#185=AXIS2_PLACEMENT_3D('',#304,#215,#216);
#186=AXIS2_PLACEMENT_3D('',#306,#217,#218);
#187=AXIS2_PLACEMENT_3D('',#311,#219,#220);
#188=AXIS2_PLACEMENT_3D('',#313,#221,#222);
#189=AXIS2_PLACEMENT_3D('',#314,#223,#224);
#190=AXIS2_PLACEMENT_3D('',#315,#225,#226);
#191=AXIS2_PLACEMENT_3D('',#316,#227,#228);
#192=AXIS2_PLACEMENT_3D('',#318,#229,#230);
#193=AXIS2_PLACEMENT_3D('',#320,#232,#233);
#194=AXIS2_PLACEMENT_3D('',#322,#234,#235);
#195=AXIS2_PLACEMENT_3D('',#323,#236,#237);
#196=AXIS2_PLACEMENT_3D('',#325,#239,#240);
#197=AXIS2_PLACEMENT_3D('',#327,#241,#242);
#198=AXIS2_PLACEMENT_3D('',#329,#243,#244);
#199=AXIS2_PLACEMENT_3D('',#330,#245,#246);
#200=AXIS2_PLACEMENT_3D('',#332,#248,#249);
#201=DIRECTION('axis',(0.,0.,1.));
#202=DIRECTION('refdir',(1.,0.,0.));
#203=DIRECTION('center_axis',(1.,0.,0.));
#204=DIRECTION('ref_axis',(0.,0.,-1.));
#205=DIRECTION('center_axis',(1.,0.,0.));
#206=DIRECTION('ref_axis',(0.,0.,-1.));
#207=DIRECTION('center_axis',(1.,0.,-6.04090230958778E-17));
#208=DIRECTION('ref_axis',(-6.04090230958778E-17,0.,-1.));
#209=DIRECTION('center_axis',(1.,0.,-6.04090230958778E-17));
#210=DIRECTION('ref_axis',(-6.04090230958778E-17,0.,-1.));
#211=DIRECTION('center_axis',(1.,0.,-6.04090230958778E-17));
#212=DIRECTION('ref_axis',(-6.04090230958778E-17,0.,-1.));
#213=DIRECTION('center_axis',(1.,0.,0.));
#214=DIRECTION('ref_axis',(0.,0.,-1.));
#215=DIRECTION('center_axis',(1.,0.,-6.04090230958778E-17));
#216=DIRECTION('ref_axis',(-6.04090230958778E-17,0.,-1.));
#217=DIRECTION('center_axis',(1.,0.,-6.04090230958778E-17));
#218=DIRECTION('ref_axis',(-6.04090230958778E-17,0.,-1.));
#219=DIRECTION('center_axis',(1.,0.,0.));
#220=DIRECTION('ref_axis',(0.,0.,-1.));
#221=DIRECTION('center_axis',(1.,0.,0.));
#222=DIRECTION('ref_axis',(0.,0.,-1.));
#223=DIRECTION('center_axis',(1.,0.,0.));
#224=DIRECTION('ref_axis',(0.,0.,-1.));
#225=DIRECTION('center_axis',(1.,0.,-6.04090230958778E-17));
#226=DIRECTION('ref_axis',(-6.04090230958778E-17,0.,-1.));
#227=DIRECTION('center_axis',(1.,0.,-6.04090230958778E-17));
#228=DIRECTION('ref_axis',(0.,0.,-1.));
#229=DIRECTION('center_axis',(1.,0.,-6.04090230958778E-17));
#230=DIRECTION('ref_axis',(-6.04090230958778E-17,0.,-1.));
#231=DIRECTION('',(-1.,0.,6.04090230958778E-17));
#232=DIRECTION('center_axis',(1.,0.,-6.04090230958778E-17));
#233=DIRECTION('ref_axis',(-6.04090230958778E-17,0.,-1.));
#234=DIRECTION('center_axis',(1.,0.,-6.04090230958778E-17));
#235=DIRECTION('ref_axis',(-6.04090230958778E-17,0.,-1.));
#236=DIRECTION('center_axis',(1.,0.,-6.04090230958778E-17));
#237=DIRECTION('ref_axis',(0.,0.,-1.));
#238=DIRECTION('',(-1.,0.,6.04090230958778E-17));
#239=DIRECTION('center_axis',(-1.,0.,0.));
#240=DIRECTION('ref_axis',(0.,0.,1.));
#241=DIRECTION('center_axis',(1.,0.,0.));
#242=DIRECTION('ref_axis',(0.,0.,-1.));
#243=DIRECTION('center_axis',(1.,0.,0.));
#244=DIRECTION('ref_axis',(0.,0.,-1.));
#245=DIRECTION('center_axis',(1.,0.,0.));
#246=DIRECTION('ref_axis',(0.,0.,-1.));
#247=DIRECTION('',(-1.,0.,0.));
#248=DIRECTION('center_axis',(1.,0.,0.));
#249=DIRECTION('ref_axis',(0.,0.,-1.));
#250=DIRECTION('',(-1.,0.,0.));
#251=CARTESIAN_POINT('',(0.,0.,0.));
#252=CARTESIAN_POINT('Ctrl Pts',(3.43380538328556,-11.2742631199956,-4.35207078855661E-13));
#253=CARTESIAN_POINT('Ctrl Pts',(1.86761076657118,-11.2742631199952,-11.0500000000004));
#254=CARTESIAN_POINT('Ctrl Pts',(1.86761076657124,4.37782313125608E-13,
-11.05));
#255=CARTESIAN_POINT('Ctrl Pts',(1.8676107665713,11.2742631199961,-11.0499999999996));
#256=CARTESIAN_POINT('Ctrl Pts',(3.43380538328568,11.2742631199956,4.35970010387691E-13));
#257=CARTESIAN_POINT('Ctrl Pts',(5.00000000000006,11.2742631199952,11.0500000000004));
#258=CARTESIAN_POINT('Ctrl Pts',(4.99999999999999,-4.33341421027107E-13,
11.05));
#259=CARTESIAN_POINT('Ctrl Pts',(4.99999999999993,-11.2742631199961,11.0499999999996));
#260=CARTESIAN_POINT('Ctrl Pts',(3.43380538328556,-11.2742631199956,-4.35207078855661E-13));
#261=CARTESIAN_POINT('Ctrl Pts',(33.9530807820177,-6.86075880762573,-4.32571265479825));
#262=CARTESIAN_POINT('Ctrl Pts',(33.,-6.86075880762546,-11.0500000000003));
#263=CARTESIAN_POINT('Ctrl Pts',(33.,2.66597553527414E-13,-11.05));
#264=CARTESIAN_POINT('Ctrl Pts',(33.,6.860758807626,-11.0499999999997));
#265=CARTESIAN_POINT('Ctrl Pts',(33.9530807820178,6.86075880762573,-4.32571265479772));
#266=CARTESIAN_POINT('Ctrl Pts',(34.9061615640355,6.86075880762546,2.39857469040429));
#267=CARTESIAN_POINT('Ctrl Pts',(34.9061615640355,-2.62156661428913E-13,
2.39857469040402));
#268=CARTESIAN_POINT('Ctrl Pts',(34.9061615640355,-6.86075880762599,2.39857469040376));
#269=CARTESIAN_POINT('Ctrl Pts',(33.9530807820177,-6.86075880762573,-4.32571265479825));
#270=CARTESIAN_POINT('',(5.,0.,-11.05));
#271=CARTESIAN_POINT('',(5.,-1.35323471305783E-15,11.05));
#272=CARTESIAN_POINT('Origin',(5.,0.,0.));
#273=CARTESIAN_POINT('',(5.,-11.0477699741208,-0.221987835061531));
#274=CARTESIAN_POINT('Origin',(5.,0.,0.));
#275=CARTESIAN_POINT('',(33.,-6.99858731392267,-4.19062577786703));
#276=CARTESIAN_POINT('Ctrl Pts',(5.,-11.0477699741208,-0.22198783506153));
#277=CARTESIAN_POINT('Ctrl Pts',(33.,-6.99858731392266,-4.19062577786703));
#278=CARTESIAN_POINT('',(33.,0.,-11.05));
#279=CARTESIAN_POINT('Origin',(33.,0.,-4.05));
#280=CARTESIAN_POINT('',(33.,-8.57252759403147E-16,2.95));
#281=CARTESIAN_POINT('Origin',(33.,0.,-4.05));
#282=CARTESIAN_POINT('Origin',(33.,0.,-4.05));
#283=CARTESIAN_POINT('Origin',(5.,0.,0.));
#284=CARTESIAN_POINT('Ctrl Pts',(3.19993921879885,-12.9577503732076,3.46251100394744E-16));
#285=CARTESIAN_POINT('Ctrl Pts',(1.39987843759771,-12.9577503732076,-12.7));
#286=CARTESIAN_POINT('Ctrl Pts',(1.39987843759771,-7.82223795699375E-16,
-12.7));
#287=CARTESIAN_POINT('Ctrl Pts',(1.39987843759771,12.9577503732076,-12.7));
#288=CARTESIAN_POINT('Ctrl Pts',(3.19993921879885,12.9577503732076,-1.24934770010361E-15));
#289=CARTESIAN_POINT('Ctrl Pts',(4.99999999999999,12.9577503732076,12.7));
#290=CARTESIAN_POINT('Ctrl Pts',(4.99999999999999,7.82223795699375E-16,
12.7));
#291=CARTESIAN_POINT('Ctrl Pts',(4.99999999999999,-12.9577503732076,12.7));
#292=CARTESIAN_POINT('Ctrl Pts',(3.19993921879885,-12.9577503732076,3.46251100394744E-16));
#293=CARTESIAN_POINT('Ctrl Pts',(34.1777355377791,-8.47793766942322,-4.39070206628609));
#294=CARTESIAN_POINT('Ctrl Pts',(33.,-8.47793766942322,-12.7));
#295=CARTESIAN_POINT('Ctrl Pts',(33.,-1.79090099182909E-15,-12.7));
#296=CARTESIAN_POINT('Ctrl Pts',(33.,8.47793766942322,-12.7));
#297=CARTESIAN_POINT('Ctrl Pts',(34.1777355377791,8.47793766942322,-4.39070206628609));
#298=CARTESIAN_POINT('Ctrl Pts',(35.3554710755581,8.47793766942322,3.91859586742782));
#299=CARTESIAN_POINT('Ctrl Pts',(35.3554710755581,1.79090099182909E-15,
3.91859586742783));
#300=CARTESIAN_POINT('Ctrl Pts',(35.3554710755582,-8.47793766942322,3.91859586742783));
#301=CARTESIAN_POINT('Ctrl Pts',(34.1777355377791,-8.47793766942322,-4.39070206628609));
#302=CARTESIAN_POINT('',(33.,0.,-12.7));
#303=CARTESIAN_POINT('',(33.,-1.05931948126246E-15,4.6));
#304=CARTESIAN_POINT('Origin',(33.,0.,-4.05));
#305=CARTESIAN_POINT('',(33.,-8.64825432363302,-4.22377328264964));
#306=CARTESIAN_POINT('Origin',(33.,0.,-4.05));
#307=CARTESIAN_POINT('',(5.,-12.6974369838311,-0.255135339843975));
#308=CARTESIAN_POINT('Ctrl Pts',(33.,-8.64825432363302,-4.22377328264963));
#309=CARTESIAN_POINT('Ctrl Pts',(5.,-12.6974369838311,-0.255135339843973));
#310=CARTESIAN_POINT('',(5.,0.,-12.7));
#311=CARTESIAN_POINT('Origin',(5.,0.,0.));
#312=CARTESIAN_POINT('',(5.,-1.55530143491714E-15,12.7));
#313=CARTESIAN_POINT('Origin',(5.,0.,0.));
#314=CARTESIAN_POINT('Origin',(5.,0.,0.));
#315=CARTESIAN_POINT('Origin',(33.,0.,-4.05));
#316=CARTESIAN_POINT('Origin',(35.5,0.,-4.05));
#317=CARTESIAN_POINT('',(38.,-1.05931948126246E-15,4.6));
#318=CARTESIAN_POINT('Origin',(38.,0.,-4.05));
#319=CARTESIAN_POINT('',(35.5,-1.05931948126246E-15,4.6));
#320=CARTESIAN_POINT('Origin',(38.,0.,-11.05));
#321=CARTESIAN_POINT('',(38.,-8.57252759403147E-16,2.95));
#322=CARTESIAN_POINT('Origin',(38.,0.,-4.05));
#323=CARTESIAN_POINT('Origin',(35.5,0.,-4.05));
#324=CARTESIAN_POINT('',(35.5,-8.57252759403147E-16,2.95));
#325=CARTESIAN_POINT('Origin',(-1.91656275796237E-15,0.,-12.7));
#326=CARTESIAN_POINT('',(-1.66533453693773E-15,-1.55530143491714E-15,12.7));
#327=CARTESIAN_POINT('Origin',(-1.94289029309402E-15,0.,0.));
#328=CARTESIAN_POINT('',(-1.38777878078145E-15,-1.35323471305783E-15,11.05));
#329=CARTESIAN_POINT('Origin',(-1.38777878078145E-15,0.,0.));
#330=CARTESIAN_POINT('Origin',(2.5,0.,0.));
#331=CARTESIAN_POINT('',(2.5,-1.55530143491714E-15,12.7));
#332=CARTESIAN_POINT('Origin',(2.5,0.,0.));
#333=CARTESIAN_POINT('',(2.5,-1.35323471305783E-15,11.05));
#334=UNCERTAINTY_MEASURE_WITH_UNIT(LENGTH_MEASURE(0.01),#338,
'DISTANCE_ACCURACY_VALUE',
'Maximum model space distance between geometric entities at asserted c
onnectivities');
#335=UNCERTAINTY_MEASURE_WITH_UNIT(LENGTH_MEASURE(0.01),#338,
'DISTANCE_ACCURACY_VALUE',
'Maximum model space distance between geometric entities at asserted c
onnectivities');
#336=(
GEOMETRIC_REPRESENTATION_CONTEXT(3)
GLOBAL_UNCERTAINTY_ASSIGNED_CONTEXT((#334))
GLOBAL_UNIT_ASSIGNED_CONTEXT((#338,#340,#341))
REPRESENTATION_CONTEXT('','3D')
);
#337=(
GEOMETRIC_REPRESENTATION_CONTEXT(3)
GLOBAL_UNCERTAINTY_ASSIGNED_CONTEXT((#335))
GLOBAL_UNIT_ASSIGNED_CONTEXT((#338,#340,#341))
REPRESENTATION_CONTEXT('','3D')
);
#338=(
LENGTH_UNIT()
NAMED_UNIT(*)
SI_UNIT(.MILLI.,.METRE.)
);
#339=(
LENGTH_UNIT()
NAMED_UNIT(*)
SI_UNIT(.CENTI.,.METRE.)
);
#340=(
NAMED_UNIT(*)
PLANE_ANGLE_UNIT()
SI_UNIT($,.RADIAN.)
);
#341=(
NAMED_UNIT(*)
SI_UNIT($,.STERADIAN.)
SOLID_ANGLE_UNIT()
);
#342=SHAPE_DEFINITION_REPRESENTATION(#343,#344);
#343=PRODUCT_DEFINITION_SHAPE('',$,#346);
#344=SHAPE_REPRESENTATION('',(#178),#336);
#345=PRODUCT_DEFINITION_CONTEXT('part definition',#350,'design');
#346=PRODUCT_DEFINITION('T14 10\X\D703','T14 10\X\D703',#347,#345);
#347=PRODUCT_DEFINITION_FORMATION('',$,#352);
#348=PRODUCT_RELATED_PRODUCT_CATEGORY('T14 10\X\D703','T14 10\X\D703',(#352));
#349=APPLICATION_PROTOCOL_DEFINITION('international standard',
'automotive_design',2009,#350);
#350=APPLICATION_CONTEXT(
'Core Data for Automotive Mechanical Design Process');
#351=PRODUCT_CONTEXT('part definition',#350,'mechanical');
#352=PRODUCT('T14 10\X\D703','T14 10\X\D703',$,(#351));
#353=PRESENTATION_STYLE_ASSIGNMENT((#354));
#354=SURFACE_STYLE_USAGE(.BOTH.,#357);
#355=SURFACE_STYLE_RENDERING_WITH_PROPERTIES($,#361,(#356));
#356=SURFACE_STYLE_TRANSPARENT(0.);
#357=SURFACE_SIDE_STYLE('',(#358,#355));
#358=SURFACE_STYLE_FILL_AREA(#359);
#359=FILL_AREA_STYLE('',(#360));
#360=FILL_AREA_STYLE_COLOUR('',#361);
#361=COLOUR_RGB('',0.749019607843137,0.749019607843137,0.749019607843137);
ENDSEC;
END-ISO-10303-21;
