ISO-10303-21;
HEADER;
/* Generated by software containing ST-Developer
 * from STEP Tools, Inc. (www.steptools.com) 
 */

FILE_DESCRIPTION(
/* description */ (''),
/* implementation_level */ '2;1');

FILE_NAME(
/* name */ 
'\\\\Tske00\\w\\Work\\TOSTE\\\X2\7D99624B\X0\\\02_\X2\6EB663A5\X0\\\\X2\6EB663A530EC30B830E530FC30B530FC\X0\\\
\X2\30B330F330BB30F330C830EC30B830E530FC30B530FC\X0\\\T-13 25\X\D710.s
tp',
/* time_stamp */ '2022-04-12T13:12:21+09:00',
/* author */ ('3dcad-eng'),
/* organization */ (''),
/* preprocessor_version */ 'ST-DEVELOPER v18.1',
/* originating_system */ 'Autodesk Inventor 2022',
/* authorisation */ '');

FILE_SCHEMA (('AUTOMOTIVE_DESIGN { 1 0 10303 214 3 1 1 }'));
ENDSEC;

DATA;
#10=MECHANICAL_DESIGN_GEOMETRIC_PRESENTATION_REPRESENTATION('',(#13),#303);
#11=SHAPE_REPRESENTATION_RELATIONSHIP('SRR','None',#310,#12);
#12=ADVANCED_BREP_SHAPE_REPRESENTATION('',(#14),#302);
#13=STYLED_ITEM('',(#319),#14);
#14=MANIFOLD_SOLID_BREP('\X2\30BD30EA30C330C9\X0\1',#157);
#15=FACE_BOUND('',#54,.T.);
#16=FACE_BOUND('',#57,.T.);
#17=PLANE('',#195);
#18=PLANE('',#198);
#19=CYLINDRICAL_SURFACE('',#185,12.7);
#20=CYLINDRICAL_SURFACE('',#190,31.75);
#21=CYLINDRICAL_SURFACE('',#197,11.5);
#22=CYLINDRICAL_SURFACE('',#200,29.75);
#23=LINE('',#268,#29);
#24=LINE('',#275,#30);
#25=LINE('',#282,#31);
#26=LINE('',#288,#32);
#27=LINE('',#294,#33);
#28=LINE('',#299,#34);
#29=VECTOR('',#215,31.75);
#30=VECTOR('',#224,12.7);
#31=VECTOR('',#233,31.75);
#32=VECTOR('',#240,29.75);
#33=VECTOR('',#249,11.5);
#34=VECTOR('',#256,29.75);
#35=CONICAL_SURFACE('',#182,31.75,0.32253982021539);
#36=CONICAL_SURFACE('',#192,29.75,0.30986207885047);
#37=FACE_OUTER_BOUND('',#47,.T.);
#38=FACE_OUTER_BOUND('',#48,.T.);
#39=FACE_OUTER_BOUND('',#49,.T.);
#40=FACE_OUTER_BOUND('',#50,.T.);
#41=FACE_OUTER_BOUND('',#51,.T.);
#42=FACE_OUTER_BOUND('',#52,.T.);
#43=FACE_OUTER_BOUND('',#53,.T.);
#44=FACE_OUTER_BOUND('',#55,.T.);
#45=FACE_OUTER_BOUND('',#56,.T.);
#46=FACE_OUTER_BOUND('',#58,.T.);
#47=EDGE_LOOP('',(#105,#106,#107,#108,#109));
#48=EDGE_LOOP('',(#110,#111,#112,#113,#114,#115));
#49=EDGE_LOOP('',(#116,#117,#118,#119));
#50=EDGE_LOOP('',(#120,#121,#122,#123,#124));
#51=EDGE_LOOP('',(#125,#126,#127,#128));
#52=EDGE_LOOP('',(#129,#130,#131,#132));
#53=EDGE_LOOP('',(#133));
#54=EDGE_LOOP('',(#134));
#55=EDGE_LOOP('',(#135,#136,#137,#138));
#56=EDGE_LOOP('',(#139));
#57=EDGE_LOOP('',(#140));
#58=EDGE_LOOP('',(#141,#142,#143,#144));
#59=CIRCLE('',#178,12.8031331703537);
#60=CIRCLE('',#179,2.);
#61=CIRCLE('',#180,12.7);
#62=CIRCLE('',#181,12.8031331703537);
#63=CIRCLE('',#183,31.6468668296463);
#64=CIRCLE('',#184,31.6468668296463);
#65=CIRCLE('',#186,12.7);
#66=CIRCLE('',#188,2.);
#67=CIRCLE('',#189,31.75);
#68=CIRCLE('',#191,31.75);
#69=CIRCLE('',#193,29.75);
#70=CIRCLE('',#194,11.5);
#71=CIRCLE('',#196,11.5);
#72=CIRCLE('',#199,29.75);
#73=VERTEX_POINT('',#259);
#74=VERTEX_POINT('',#260);
#75=VERTEX_POINT('',#262);
#76=VERTEX_POINT('',#267);
#77=VERTEX_POINT('',#269);
#78=VERTEX_POINT('',#273);
#79=VERTEX_POINT('',#277);
#80=VERTEX_POINT('',#281);
#81=VERTEX_POINT('',#285);
#82=VERTEX_POINT('',#287);
#83=VERTEX_POINT('',#291);
#84=VERTEX_POINT('',#296);
#85=EDGE_CURVE('',#73,#74,#59,.T.);
#86=EDGE_CURVE('',#74,#75,#60,.T.);
#87=EDGE_CURVE('',#75,#75,#61,.T.);
#88=EDGE_CURVE('',#74,#73,#62,.T.);
#89=EDGE_CURVE('',#73,#76,#23,.T.);
#90=EDGE_CURVE('',#77,#76,#63,.T.);
#91=EDGE_CURVE('',#76,#77,#64,.T.);
#92=EDGE_CURVE('',#78,#78,#65,.T.);
#93=EDGE_CURVE('',#78,#75,#24,.T.);
#94=EDGE_CURVE('',#77,#79,#66,.T.);
#95=EDGE_CURVE('',#79,#79,#67,.T.);
#96=EDGE_CURVE('',#79,#80,#25,.T.);
#97=EDGE_CURVE('',#80,#80,#68,.T.);
#98=EDGE_CURVE('',#81,#81,#69,.T.);
#99=EDGE_CURVE('',#81,#82,#26,.T.);
#100=EDGE_CURVE('',#82,#82,#70,.T.);
#101=EDGE_CURVE('',#83,#83,#71,.T.);
#102=EDGE_CURVE('',#83,#82,#27,.T.);
#103=EDGE_CURVE('',#84,#84,#72,.T.);
#104=EDGE_CURVE('',#81,#84,#28,.T.);
#105=ORIENTED_EDGE('',*,*,#85,.T.);
#106=ORIENTED_EDGE('',*,*,#86,.T.);
#107=ORIENTED_EDGE('',*,*,#87,.T.);
#108=ORIENTED_EDGE('',*,*,#86,.F.);
#109=ORIENTED_EDGE('',*,*,#88,.T.);
#110=ORIENTED_EDGE('',*,*,#85,.F.);
#111=ORIENTED_EDGE('',*,*,#89,.T.);
#112=ORIENTED_EDGE('',*,*,#90,.F.);
#113=ORIENTED_EDGE('',*,*,#91,.F.);
#114=ORIENTED_EDGE('',*,*,#89,.F.);
#115=ORIENTED_EDGE('',*,*,#88,.F.);
#116=ORIENTED_EDGE('',*,*,#92,.F.);
#117=ORIENTED_EDGE('',*,*,#93,.T.);
#118=ORIENTED_EDGE('',*,*,#87,.F.);
#119=ORIENTED_EDGE('',*,*,#93,.F.);
#120=ORIENTED_EDGE('',*,*,#90,.T.);
#121=ORIENTED_EDGE('',*,*,#91,.T.);
#122=ORIENTED_EDGE('',*,*,#94,.T.);
#123=ORIENTED_EDGE('',*,*,#95,.T.);
#124=ORIENTED_EDGE('',*,*,#94,.F.);
#125=ORIENTED_EDGE('',*,*,#95,.F.);
#126=ORIENTED_EDGE('',*,*,#96,.T.);
#127=ORIENTED_EDGE('',*,*,#97,.T.);
#128=ORIENTED_EDGE('',*,*,#96,.F.);
#129=ORIENTED_EDGE('',*,*,#98,.F.);
#130=ORIENTED_EDGE('',*,*,#99,.T.);
#131=ORIENTED_EDGE('',*,*,#100,.T.);
#132=ORIENTED_EDGE('',*,*,#99,.F.);
#133=ORIENTED_EDGE('',*,*,#92,.T.);
#134=ORIENTED_EDGE('',*,*,#101,.F.);
#135=ORIENTED_EDGE('',*,*,#101,.T.);
#136=ORIENTED_EDGE('',*,*,#102,.T.);
#137=ORIENTED_EDGE('',*,*,#100,.F.);
#138=ORIENTED_EDGE('',*,*,#102,.F.);
#139=ORIENTED_EDGE('',*,*,#97,.F.);
#140=ORIENTED_EDGE('',*,*,#103,.T.);
#141=ORIENTED_EDGE('',*,*,#98,.T.);
#142=ORIENTED_EDGE('',*,*,#104,.T.);
#143=ORIENTED_EDGE('',*,*,#103,.F.);
#144=ORIENTED_EDGE('',*,*,#104,.F.);
#145=TOROIDAL_SURFACE('',#177,14.7,2.);
#146=TOROIDAL_SURFACE('',#187,29.75,2.);
#147=ADVANCED_FACE('',(#37),#145,.F.);
#148=ADVANCED_FACE('',(#38),#35,.T.);
#149=ADVANCED_FACE('',(#39),#19,.T.);
#150=ADVANCED_FACE('',(#40),#146,.T.);
#151=ADVANCED_FACE('',(#41),#20,.T.);
#152=ADVANCED_FACE('',(#42),#36,.F.);
#153=ADVANCED_FACE('',(#43,#15),#17,.T.);
#154=ADVANCED_FACE('',(#44),#21,.F.);
#155=ADVANCED_FACE('',(#45,#16),#18,.T.);
#156=ADVANCED_FACE('',(#46),#22,.F.);
#157=CLOSED_SHELL('',(#147,#148,#149,#150,#151,#152,#153,#154,#155,#156));
#158=DERIVED_UNIT_ELEMENT(#160,1.);
#159=DERIVED_UNIT_ELEMENT(#305,-3.);
#160=(
MASS_UNIT()
NAMED_UNIT(*)
SI_UNIT($,.GRAM.)
);
#161=DERIVED_UNIT((#158,#159));
#162=MEASURE_REPRESENTATION_ITEM('density measure',
POSITIVE_RATIO_MEASURE(1.),#161);
#163=PROPERTY_DEFINITION_REPRESENTATION(#168,#165);
#164=PROPERTY_DEFINITION_REPRESENTATION(#169,#166);
#165=REPRESENTATION('material name',(#167),#302);
#166=REPRESENTATION('density',(#162),#302);
#167=DESCRIPTIVE_REPRESENTATION_ITEM('\X2\4E00822C\X0\','\X2\4E00822C\X0\');
#168=PROPERTY_DEFINITION('material property','material name',#312);
#169=PROPERTY_DEFINITION('material property','density of part',#312);
#170=DATE_TIME_ROLE('creation_date');
#171=APPLIED_DATE_AND_TIME_ASSIGNMENT(#172,#170,(#312));
#172=DATE_AND_TIME(#173,#174);
#173=CALENDAR_DATE(2022,30,3);
#174=LOCAL_TIME(0,0,0.,#175);
#175=COORDINATED_UNIVERSAL_TIME_OFFSET(0,0,.BEHIND.);
#176=AXIS2_PLACEMENT_3D('placement',#257,#201,#202);
#177=AXIS2_PLACEMENT_3D('',#258,#203,#204);
#178=AXIS2_PLACEMENT_3D('',#261,#205,#206);
#179=AXIS2_PLACEMENT_3D('',#263,#207,#208);
#180=AXIS2_PLACEMENT_3D('',#264,#209,#210);
#181=AXIS2_PLACEMENT_3D('',#265,#211,#212);
#182=AXIS2_PLACEMENT_3D('',#266,#213,#214);
#183=AXIS2_PLACEMENT_3D('',#270,#216,#217);
#184=AXIS2_PLACEMENT_3D('',#271,#218,#219);
#185=AXIS2_PLACEMENT_3D('',#272,#220,#221);
#186=AXIS2_PLACEMENT_3D('',#274,#222,#223);
#187=AXIS2_PLACEMENT_3D('',#276,#225,#226);
#188=AXIS2_PLACEMENT_3D('',#278,#227,#228);
#189=AXIS2_PLACEMENT_3D('',#279,#229,#230);
#190=AXIS2_PLACEMENT_3D('',#280,#231,#232);
#191=AXIS2_PLACEMENT_3D('',#283,#234,#235);
#192=AXIS2_PLACEMENT_3D('',#284,#236,#237);
#193=AXIS2_PLACEMENT_3D('',#286,#238,#239);
#194=AXIS2_PLACEMENT_3D('',#289,#241,#242);
#195=AXIS2_PLACEMENT_3D('',#290,#243,#244);
#196=AXIS2_PLACEMENT_3D('',#292,#245,#246);
#197=AXIS2_PLACEMENT_3D('',#293,#247,#248);
#198=AXIS2_PLACEMENT_3D('',#295,#250,#251);
#199=AXIS2_PLACEMENT_3D('',#297,#252,#253);
#200=AXIS2_PLACEMENT_3D('',#298,#254,#255);
#201=DIRECTION('axis',(0.,0.,1.));
#202=DIRECTION('refdir',(1.,0.,0.));
#203=DIRECTION('center_axis',(1.,0.,0.));
#204=DIRECTION('ref_axis',(0.,0.,-1.));
#205=DIRECTION('center_axis',(1.,0.,0.));
#206=DIRECTION('ref_axis',(0.,0.,1.));
#207=DIRECTION('center_axis',(0.,-1.,-1.22464679914735E-16));
#208=DIRECTION('ref_axis',(0.,-1.22464679914735E-16,1.));
#209=DIRECTION('center_axis',(-1.,0.,0.));
#210=DIRECTION('ref_axis',(0.,1.22464679914735E-16,1.));
#211=DIRECTION('center_axis',(1.,0.,0.));
#212=DIRECTION('ref_axis',(0.,0.,1.));
#213=DIRECTION('center_axis',(-1.,0.,0.));
#214=DIRECTION('ref_axis',(0.,0.,1.));
#215=DIRECTION('',(-0.948433414823147,3.88184171315211E-17,-0.316976430743525));
#216=DIRECTION('center_axis',(-1.,0.,0.));
#217=DIRECTION('ref_axis',(0.,6.12323399573677E-17,-1.));
#218=DIRECTION('center_axis',(-1.,0.,0.));
#219=DIRECTION('ref_axis',(0.,6.12323399573677E-17,-1.));
#220=DIRECTION('center_axis',(1.,0.,0.));
#221=DIRECTION('ref_axis',(0.,0.,-1.));
#222=DIRECTION('center_axis',(1.,0.,0.));
#223=DIRECTION('ref_axis',(0.,0.,-1.));
#224=DIRECTION('',(-1.,0.,0.));
#225=DIRECTION('center_axis',(1.,0.,0.));
#226=DIRECTION('ref_axis',(0.,0.,-1.));
#227=DIRECTION('center_axis',(0.,-1.,-1.22464679914735E-16));
#228=DIRECTION('ref_axis',(0.,-1.22464679914735E-16,1.));
#229=DIRECTION('center_axis',(1.,0.,0.));
#230=DIRECTION('ref_axis',(0.,0.,-1.));
#231=DIRECTION('center_axis',(1.,0.,0.));
#232=DIRECTION('ref_axis',(0.,0.,-1.));
#233=DIRECTION('',(-1.,0.,0.));
#234=DIRECTION('center_axis',(1.,0.,0.));
#235=DIRECTION('ref_axis',(0.,0.,-1.));
#236=DIRECTION('center_axis',(-1.,0.,0.));
#237=DIRECTION('ref_axis',(0.,0.,-1.));
#238=DIRECTION('center_axis',(1.,0.,0.));
#239=DIRECTION('ref_axis',(0.,0.,-1.));
#240=DIRECTION('',(0.952375634865632,3.73428225509478E-17,-0.304927286601715));
#241=DIRECTION('center_axis',(1.,0.,0.));
#242=DIRECTION('ref_axis',(0.,0.,-1.));
#243=DIRECTION('center_axis',(1.,0.,0.));
#244=DIRECTION('ref_axis',(0.,0.,-1.));
#245=DIRECTION('center_axis',(1.,0.,0.));
#246=DIRECTION('ref_axis',(0.,0.,-1.));
#247=DIRECTION('center_axis',(1.,0.,0.));
#248=DIRECTION('ref_axis',(0.,0.,-1.));
#249=DIRECTION('',(-1.,0.,0.));
#250=DIRECTION('center_axis',(-1.,0.,0.));
#251=DIRECTION('ref_axis',(0.,0.,1.));
#252=DIRECTION('center_axis',(1.,0.,0.));
#253=DIRECTION('ref_axis',(0.,0.,-1.));
#254=DIRECTION('center_axis',(1.,0.,0.));
#255=DIRECTION('ref_axis',(0.,0.,-1.));
#256=DIRECTION('',(-1.,0.,0.));
#257=CARTESIAN_POINT('',(0.,0.,0.));
#258=CARTESIAN_POINT('Origin',(62.3253654226335,0.,0.));
#259=CARTESIAN_POINT('',(61.6914125611464,3.13586321122619E-15,-12.8031331703537));
#260=CARTESIAN_POINT('',(61.6914125611464,-1.5679316056131E-15,12.8031331703537));
#261=CARTESIAN_POINT('Origin',(61.6914125611464,1.5679316056131E-15,0.));
#262=CARTESIAN_POINT('',(62.3253654226335,-1.55530143491714E-15,12.7));
#263=CARTESIAN_POINT('Origin',(62.3253654226335,-1.80023079474661E-15,14.7));
#264=CARTESIAN_POINT('Origin',(62.3253654226335,0.,0.));
#265=CARTESIAN_POINT('Origin',(61.6914125611464,1.5679316056131E-15,0.));
#266=CARTESIAN_POINT('Origin',(4.99999999999999,0.,0.));
#267=CARTESIAN_POINT('',(5.30858743885361,3.87562341659689E-15,-31.6468668296463));
#268=CARTESIAN_POINT('',(4.99999999999999,3.88825358729285E-15,-31.75));
#269=CARTESIAN_POINT('',(5.30858743885361,3.87562341659689E-15,31.6468668296463));
#270=CARTESIAN_POINT('Origin',(5.30858743885361,1.93781170829844E-15,0.));
#271=CARTESIAN_POINT('Origin',(5.30858743885361,1.93781170829844E-15,0.));
#272=CARTESIAN_POINT('Origin',(64.5,0.,0.));
#273=CARTESIAN_POINT('',(67.,-1.55530143491714E-15,12.7));
#274=CARTESIAN_POINT('Origin',(67.,0.,0.));
#275=CARTESIAN_POINT('',(64.5,-1.55530143491714E-15,12.7));
#276=CARTESIAN_POINT('Origin',(4.67463457736656,0.,0.));
#277=CARTESIAN_POINT('',(4.67463457736656,-3.88825358729285E-15,31.75));
#278=CARTESIAN_POINT('Origin',(4.67463457736656,-3.64332422746338E-15,29.75));
#279=CARTESIAN_POINT('Origin',(4.67463457736656,0.,0.));
#280=CARTESIAN_POINT('Origin',(2.49999999999999,0.,0.));
#281=CARTESIAN_POINT('',(-4.9960036108132E-15,-3.88825358729285E-15,31.75));
#282=CARTESIAN_POINT('',(2.49999999999999,-3.88825358729285E-15,31.75));
#283=CARTESIAN_POINT('Origin',(-4.9960036108132E-15,0.,0.));
#284=CARTESIAN_POINT('Origin',(4.99999999999999,0.,0.));
#285=CARTESIAN_POINT('',(4.99999999999999,-3.64332422746338E-15,29.75));
#286=CARTESIAN_POINT('Origin',(4.99999999999999,0.,0.));
#287=CARTESIAN_POINT('',(62.,-1.40834381901946E-15,11.5));
#288=CARTESIAN_POINT('',(4.99999999999999,-3.64332422746338E-15,29.75));
#289=CARTESIAN_POINT('Origin',(62.,0.,0.));
#290=CARTESIAN_POINT('Origin',(67.,0.,-11.5));
#291=CARTESIAN_POINT('',(67.,-1.40834381901946E-15,11.5));
#292=CARTESIAN_POINT('Origin',(67.,0.,0.));
#293=CARTESIAN_POINT('Origin',(64.5,0.,0.));
#294=CARTESIAN_POINT('',(64.5,-1.40834381901946E-15,11.5));
#295=CARTESIAN_POINT('Origin',(-4.92850580537078E-15,0.,-31.75));
#296=CARTESIAN_POINT('',(-4.44089209850063E-15,-3.64332422746338E-15,29.75));
#297=CARTESIAN_POINT('Origin',(-4.16333634234434E-15,0.,0.));
#298=CARTESIAN_POINT('Origin',(2.5,0.,0.));
#299=CARTESIAN_POINT('',(2.5,-3.64332422746338E-15,29.75));
#300=UNCERTAINTY_MEASURE_WITH_UNIT(LENGTH_MEASURE(0.01),#304,
'DISTANCE_ACCURACY_VALUE',
'Maximum model space distance between geometric entities at asserted c
onnectivities');
#301=UNCERTAINTY_MEASURE_WITH_UNIT(LENGTH_MEASURE(0.01),#304,
'DISTANCE_ACCURACY_VALUE',
'Maximum model space distance between geometric entities at asserted c
onnectivities');
#302=(
GEOMETRIC_REPRESENTATION_CONTEXT(3)
GLOBAL_UNCERTAINTY_ASSIGNED_CONTEXT((#300))
GLOBAL_UNIT_ASSIGNED_CONTEXT((#304,#306,#307))
REPRESENTATION_CONTEXT('','3D')
);
#303=(
GEOMETRIC_REPRESENTATION_CONTEXT(3)
GLOBAL_UNCERTAINTY_ASSIGNED_CONTEXT((#301))
GLOBAL_UNIT_ASSIGNED_CONTEXT((#304,#306,#307))
REPRESENTATION_CONTEXT('','3D')
);
#304=(
LENGTH_UNIT()
NAMED_UNIT(*)
SI_UNIT(.MILLI.,.METRE.)
);
#305=(
LENGTH_UNIT()
NAMED_UNIT(*)
SI_UNIT(.CENTI.,.METRE.)
);
#306=(
NAMED_UNIT(*)
PLANE_ANGLE_UNIT()
SI_UNIT($,.RADIAN.)
);
#307=(
NAMED_UNIT(*)
SI_UNIT($,.STERADIAN.)
SOLID_ANGLE_UNIT()
);
#308=SHAPE_DEFINITION_REPRESENTATION(#309,#310);
#309=PRODUCT_DEFINITION_SHAPE('',$,#312);
#310=SHAPE_REPRESENTATION('',(#176),#302);
#311=PRODUCT_DEFINITION_CONTEXT('part definition',#316,'design');
#312=PRODUCT_DEFINITION('T-13 25\X\D710','T-13 25\X\D710',#313,#311);
#313=PRODUCT_DEFINITION_FORMATION('',$,#318);
#314=PRODUCT_RELATED_PRODUCT_CATEGORY('T-13 25\X\D710','T-13 25\X\D710',
(#318));
#315=APPLICATION_PROTOCOL_DEFINITION('international standard',
'automotive_design',2009,#316);
#316=APPLICATION_CONTEXT(
'Core Data for Automotive Mechanical Design Process');
#317=PRODUCT_CONTEXT('part definition',#316,'mechanical');
#318=PRODUCT('T-13 25\X\D710','T-13 25\X\D710',$,(#317));
#319=PRESENTATION_STYLE_ASSIGNMENT((#320));
#320=SURFACE_STYLE_USAGE(.BOTH.,#323);
#321=SURFACE_STYLE_RENDERING_WITH_PROPERTIES($,#327,(#322));
#322=SURFACE_STYLE_TRANSPARENT(0.);
#323=SURFACE_SIDE_STYLE('',(#324,#321));
#324=SURFACE_STYLE_FILL_AREA(#325);
#325=FILL_AREA_STYLE('',(#326));
#326=FILL_AREA_STYLE_COLOUR('',#327);
#327=COLOUR_RGB('',0.749019607843137,0.749019607843137,0.749019607843137);
ENDSEC;
END-ISO-10303-21;
