ISO-10303-21;
HEADER;
/* Generated by software containing ST-Developer
 * from STEP Tools, Inc. (www.steptools.com) 
 */

FILE_DESCRIPTION(
/* description */ (''),
/* implementation_level */ '2;1');

FILE_NAME(
/* name */ 
'\\\\Tske00\\w\\Work\\TOSTE\\\X2\7D99624B\X0\\\02_\X2\6EB663A5\X0\\\\X2\6EB663A530EC30B830E530FC30B530FC\X0\\\
\X2\30B330F330BB30F330C830EC30B830E530FC30B530FC\X0\\\T-13 15\X\D704.s
tp',
/* time_stamp */ '2022-04-12T13:12:24+09:00',
/* author */ ('3dcad-eng'),
/* organization */ (''),
/* preprocessor_version */ 'ST-DEVELOPER v18.1',
/* originating_system */ 'Autodesk Inventor 2022',
/* authorisation */ '');

FILE_SCHEMA (('AUTOMOTIVE_DESIGN { 1 0 10303 214 3 1 1 }'));
ENDSEC;

DATA;
#10=MECHANICAL_DESIGN_GEOMETRIC_PRESENTATION_REPRESENTATION('',(#13),#251);
#11=SHAPE_REPRESENTATION_RELATIONSHIP('SRR','None',#258,#12);
#12=ADVANCED_BREP_SHAPE_REPRESENTATION('',(#14),#250);
#13=STYLED_ITEM('',(#267),#14);
#14=MANIFOLD_SOLID_BREP('\X2\30BD30EA30C330C9\X0\1',#131);
#15=FACE_BOUND('',#35,.T.);
#16=FACE_BOUND('',#38,.T.);
#17=PLANE('',#161);
#18=PLANE('',#164);
#19=CYLINDRICAL_SURFACE('',#159,10.85);
#20=CYLINDRICAL_SURFACE('',#163,9.2);
#21=CYLINDRICAL_SURFACE('',#167,19.05);
#22=CYLINDRICAL_SURFACE('',#168,17.4);
#23=FACE_OUTER_BOUND('',#31,.T.);
#24=FACE_OUTER_BOUND('',#32,.T.);
#25=FACE_OUTER_BOUND('',#33,.T.);
#26=FACE_OUTER_BOUND('',#34,.T.);
#27=FACE_OUTER_BOUND('',#36,.T.);
#28=FACE_OUTER_BOUND('',#37,.T.);
#29=FACE_OUTER_BOUND('',#39,.T.);
#30=FACE_OUTER_BOUND('',#40,.T.);
#31=EDGE_LOOP('',(#89,#90,#91,#92));
#32=EDGE_LOOP('',(#93,#94,#95,#96,#97,#98));
#33=EDGE_LOOP('',(#99,#100,#101,#102,#103));
#34=EDGE_LOOP('',(#104));
#35=EDGE_LOOP('',(#105));
#36=EDGE_LOOP('',(#106,#107,#108,#109));
#37=EDGE_LOOP('',(#110));
#38=EDGE_LOOP('',(#111));
#39=EDGE_LOOP('',(#112,#113,#114,#115,#116));
#40=EDGE_LOOP('',(#117,#118,#119,#120));
#41=LINE('',#218,#47);
#42=LINE('',#225,#48);
#43=LINE('',#233,#49);
#44=LINE('',#238,#50);
#45=LINE('',#245,#51);
#46=LINE('',#247,#52);
#47=VECTOR('',#175,17.4);
#48=VECTOR('',#182,19.05);
#49=VECTOR('',#193,10.85);
#50=VECTOR('',#200,9.2);
#51=VECTOR('',#209,19.05);
#52=VECTOR('',#212,17.4);
#53=CIRCLE('',#152,17.4);
#54=CIRCLE('',#153,9.2);
#55=CIRCLE('',#155,10.85);
#56=CIRCLE('',#156,19.05);
#57=CIRCLE('',#157,19.05);
#58=CIRCLE('',#158,10.85);
#59=CIRCLE('',#160,10.85);
#60=CIRCLE('',#162,9.2);
#61=CIRCLE('',#165,19.05);
#62=CIRCLE('',#166,17.4);
#63=VERTEX_POINT('',#215);
#64=VERTEX_POINT('',#217);
#65=VERTEX_POINT('',#221);
#66=VERTEX_POINT('',#222);
#67=VERTEX_POINT('',#224);
#68=VERTEX_POINT('',#226);
#69=VERTEX_POINT('',#231);
#70=VERTEX_POINT('',#235);
#71=VERTEX_POINT('',#240);
#72=VERTEX_POINT('',#242);
#73=EDGE_CURVE('',#63,#63,#53,.T.);
#74=EDGE_CURVE('',#63,#64,#41,.T.);
#75=EDGE_CURVE('',#64,#64,#54,.T.);
#76=EDGE_CURVE('',#65,#66,#55,.T.);
#77=EDGE_CURVE('',#65,#67,#42,.T.);
#78=EDGE_CURVE('',#67,#68,#56,.T.);
#79=EDGE_CURVE('',#68,#67,#57,.T.);
#80=EDGE_CURVE('',#66,#65,#58,.T.);
#81=EDGE_CURVE('',#69,#69,#59,.T.);
#82=EDGE_CURVE('',#69,#66,#43,.T.);
#83=EDGE_CURVE('',#70,#70,#60,.T.);
#84=EDGE_CURVE('',#70,#64,#44,.T.);
#85=EDGE_CURVE('',#71,#71,#61,.T.);
#86=EDGE_CURVE('',#72,#72,#62,.T.);
#87=EDGE_CURVE('',#68,#71,#45,.T.);
#88=EDGE_CURVE('',#63,#72,#46,.T.);
#89=ORIENTED_EDGE('',*,*,#73,.F.);
#90=ORIENTED_EDGE('',*,*,#74,.T.);
#91=ORIENTED_EDGE('',*,*,#75,.T.);
#92=ORIENTED_EDGE('',*,*,#74,.F.);
#93=ORIENTED_EDGE('',*,*,#76,.F.);
#94=ORIENTED_EDGE('',*,*,#77,.T.);
#95=ORIENTED_EDGE('',*,*,#78,.T.);
#96=ORIENTED_EDGE('',*,*,#79,.T.);
#97=ORIENTED_EDGE('',*,*,#77,.F.);
#98=ORIENTED_EDGE('',*,*,#80,.F.);
#99=ORIENTED_EDGE('',*,*,#81,.F.);
#100=ORIENTED_EDGE('',*,*,#82,.T.);
#101=ORIENTED_EDGE('',*,*,#80,.T.);
#102=ORIENTED_EDGE('',*,*,#76,.T.);
#103=ORIENTED_EDGE('',*,*,#82,.F.);
#104=ORIENTED_EDGE('',*,*,#81,.T.);
#105=ORIENTED_EDGE('',*,*,#83,.F.);
#106=ORIENTED_EDGE('',*,*,#83,.T.);
#107=ORIENTED_EDGE('',*,*,#84,.T.);
#108=ORIENTED_EDGE('',*,*,#75,.F.);
#109=ORIENTED_EDGE('',*,*,#84,.F.);
#110=ORIENTED_EDGE('',*,*,#85,.F.);
#111=ORIENTED_EDGE('',*,*,#86,.T.);
#112=ORIENTED_EDGE('',*,*,#79,.F.);
#113=ORIENTED_EDGE('',*,*,#87,.T.);
#114=ORIENTED_EDGE('',*,*,#85,.T.);
#115=ORIENTED_EDGE('',*,*,#87,.F.);
#116=ORIENTED_EDGE('',*,*,#78,.F.);
#117=ORIENTED_EDGE('',*,*,#73,.T.);
#118=ORIENTED_EDGE('',*,*,#88,.T.);
#119=ORIENTED_EDGE('',*,*,#86,.F.);
#120=ORIENTED_EDGE('',*,*,#88,.F.);
#121=CONICAL_SURFACE('',#151,17.4,0.284890900652272);
#122=CONICAL_SURFACE('',#154,19.05,0.284890900652272);
#123=ADVANCED_FACE('',(#23),#121,.F.);
#124=ADVANCED_FACE('',(#24),#122,.T.);
#125=ADVANCED_FACE('',(#25),#19,.T.);
#126=ADVANCED_FACE('',(#26,#15),#17,.T.);
#127=ADVANCED_FACE('',(#27),#20,.F.);
#128=ADVANCED_FACE('',(#28,#16),#18,.T.);
#129=ADVANCED_FACE('',(#29),#21,.T.);
#130=ADVANCED_FACE('',(#30),#22,.F.);
#131=CLOSED_SHELL('',(#123,#124,#125,#126,#127,#128,#129,#130));
#132=DERIVED_UNIT_ELEMENT(#134,1.);
#133=DERIVED_UNIT_ELEMENT(#253,-3.);
#134=(
MASS_UNIT()
NAMED_UNIT(*)
SI_UNIT($,.GRAM.)
);
#135=DERIVED_UNIT((#132,#133));
#136=MEASURE_REPRESENTATION_ITEM('density measure',
POSITIVE_RATIO_MEASURE(1.),#135);
#137=PROPERTY_DEFINITION_REPRESENTATION(#142,#139);
#138=PROPERTY_DEFINITION_REPRESENTATION(#143,#140);
#139=REPRESENTATION('material name',(#141),#250);
#140=REPRESENTATION('density',(#136),#250);
#141=DESCRIPTIVE_REPRESENTATION_ITEM('\X2\4E00822C\X0\','\X2\4E00822C\X0\');
#142=PROPERTY_DEFINITION('material property','material name',#260);
#143=PROPERTY_DEFINITION('material property','density of part',#260);
#144=DATE_TIME_ROLE('creation_date');
#145=APPLIED_DATE_AND_TIME_ASSIGNMENT(#146,#144,(#260));
#146=DATE_AND_TIME(#147,#148);
#147=CALENDAR_DATE(2022,30,3);
#148=LOCAL_TIME(0,0,0.,#149);
#149=COORDINATED_UNIVERSAL_TIME_OFFSET(0,0,.BEHIND.);
#150=AXIS2_PLACEMENT_3D('placement',#213,#169,#170);
#151=AXIS2_PLACEMENT_3D('',#214,#171,#172);
#152=AXIS2_PLACEMENT_3D('',#216,#173,#174);
#153=AXIS2_PLACEMENT_3D('',#219,#176,#177);
#154=AXIS2_PLACEMENT_3D('',#220,#178,#179);
#155=AXIS2_PLACEMENT_3D('',#223,#180,#181);
#156=AXIS2_PLACEMENT_3D('',#227,#183,#184);
#157=AXIS2_PLACEMENT_3D('',#228,#185,#186);
#158=AXIS2_PLACEMENT_3D('',#229,#187,#188);
#159=AXIS2_PLACEMENT_3D('',#230,#189,#190);
#160=AXIS2_PLACEMENT_3D('',#232,#191,#192);
#161=AXIS2_PLACEMENT_3D('',#234,#194,#195);
#162=AXIS2_PLACEMENT_3D('',#236,#196,#197);
#163=AXIS2_PLACEMENT_3D('',#237,#198,#199);
#164=AXIS2_PLACEMENT_3D('',#239,#201,#202);
#165=AXIS2_PLACEMENT_3D('',#241,#203,#204);
#166=AXIS2_PLACEMENT_3D('',#243,#205,#206);
#167=AXIS2_PLACEMENT_3D('',#244,#207,#208);
#168=AXIS2_PLACEMENT_3D('',#246,#210,#211);
#169=DIRECTION('axis',(0.,0.,1.));
#170=DIRECTION('refdir',(1.,0.,0.));
#171=DIRECTION('center_axis',(-1.,0.,0.));
#172=DIRECTION('ref_axis',(0.,0.,-1.));
#173=DIRECTION('center_axis',(1.,0.,0.));
#174=DIRECTION('ref_axis',(0.,0.,-1.));
#175=DIRECTION('',(0.959692321040619,3.44190352101973E-17,-0.281052751161895));
#176=DIRECTION('center_axis',(1.,0.,0.));
#177=DIRECTION('ref_axis',(0.,0.,-1.));
#178=DIRECTION('center_axis',(-1.,0.,0.));
#179=DIRECTION('ref_axis',(0.,0.,1.));
#180=DIRECTION('center_axis',(1.,0.,0.));
#181=DIRECTION('ref_axis',(0.,0.,-1.));
#182=DIRECTION('',(-0.959692321040619,3.44190352101973E-17,-0.281052751161895));
#183=DIRECTION('center_axis',(1.,0.,0.));
#184=DIRECTION('ref_axis',(0.,0.,-1.));
#185=DIRECTION('center_axis',(1.,0.,0.));
#186=DIRECTION('ref_axis',(0.,0.,-1.));
#187=DIRECTION('center_axis',(1.,0.,0.));
#188=DIRECTION('ref_axis',(0.,0.,-1.));
#189=DIRECTION('center_axis',(1.,0.,0.));
#190=DIRECTION('ref_axis',(0.,0.,-1.));
#191=DIRECTION('center_axis',(1.,0.,0.));
#192=DIRECTION('ref_axis',(0.,0.,-1.));
#193=DIRECTION('',(-1.,0.,0.));
#194=DIRECTION('center_axis',(1.,0.,0.));
#195=DIRECTION('ref_axis',(0.,0.,-1.));
#196=DIRECTION('center_axis',(1.,0.,0.));
#197=DIRECTION('ref_axis',(0.,0.,-1.));
#198=DIRECTION('center_axis',(1.,0.,0.));
#199=DIRECTION('ref_axis',(0.,0.,-1.));
#200=DIRECTION('',(-1.,0.,0.));
#201=DIRECTION('center_axis',(-1.,0.,0.));
#202=DIRECTION('ref_axis',(0.,0.,1.));
#203=DIRECTION('center_axis',(1.,0.,0.));
#204=DIRECTION('ref_axis',(0.,0.,-1.));
#205=DIRECTION('center_axis',(1.,0.,0.));
#206=DIRECTION('ref_axis',(0.,0.,-1.));
#207=DIRECTION('center_axis',(1.,0.,0.));
#208=DIRECTION('ref_axis',(0.,0.,-1.));
#209=DIRECTION('',(-1.,0.,0.));
#210=DIRECTION('center_axis',(1.,0.,0.));
#211=DIRECTION('ref_axis',(0.,0.,-1.));
#212=DIRECTION('',(-1.,0.,0.));
#213=CARTESIAN_POINT('',(0.,0.,0.));
#214=CARTESIAN_POINT('Origin',(5.,0.,0.));
#215=CARTESIAN_POINT('',(5.,-2.13088543051639E-15,17.4));
#216=CARTESIAN_POINT('Origin',(5.,0.,0.));
#217=CARTESIAN_POINT('',(33.,-1.12667505521557E-15,9.2));
#218=CARTESIAN_POINT('',(5.,-2.13088543051639E-15,17.4));
#219=CARTESIAN_POINT('Origin',(33.,0.,0.));
#220=CARTESIAN_POINT('Origin',(5.,0.,0.));
#221=CARTESIAN_POINT('',(33.,0.,-10.85));
#222=CARTESIAN_POINT('',(33.,-1.32874177707488E-15,10.85));
#223=CARTESIAN_POINT('Origin',(33.,0.,0.));
#224=CARTESIAN_POINT('',(5.,2.33295215237571E-15,-19.05));
#225=CARTESIAN_POINT('',(5.,2.33295215237571E-15,-19.05));
#226=CARTESIAN_POINT('',(5.,0.,19.05));
#227=CARTESIAN_POINT('Origin',(5.,0.,0.));
#228=CARTESIAN_POINT('Origin',(5.,0.,0.));
#229=CARTESIAN_POINT('Origin',(33.,0.,0.));
#230=CARTESIAN_POINT('Origin',(35.5,0.,0.));
#231=CARTESIAN_POINT('',(38.,-1.32874177707488E-15,10.85));
#232=CARTESIAN_POINT('Origin',(38.,0.,0.));
#233=CARTESIAN_POINT('',(35.5,-1.32874177707488E-15,10.85));
#234=CARTESIAN_POINT('Origin',(38.,0.,-9.2));
#235=CARTESIAN_POINT('',(38.,-1.12667505521557E-15,9.2));
#236=CARTESIAN_POINT('Origin',(38.,0.,0.));
#237=CARTESIAN_POINT('Origin',(35.5,0.,0.));
#238=CARTESIAN_POINT('',(35.5,-1.12667505521557E-15,9.2));
#239=CARTESIAN_POINT('Origin',(9.06727362963528E-16,0.,-19.05));
#240=CARTESIAN_POINT('',(8.32667268468867E-16,-2.33295215237571E-15,19.05));
#241=CARTESIAN_POINT('Origin',(8.32667268468867E-16,0.,0.));
#242=CARTESIAN_POINT('',(1.66533453693773E-15,-2.13088543051639E-15,17.4));
#243=CARTESIAN_POINT('Origin',(1.66533453693773E-15,0.,0.));
#244=CARTESIAN_POINT('Origin',(2.5,0.,0.));
#245=CARTESIAN_POINT('',(2.5,-2.33295215237571E-15,19.05));
#246=CARTESIAN_POINT('Origin',(2.5,0.,0.));
#247=CARTESIAN_POINT('',(2.5,-2.13088543051639E-15,17.4));
#248=UNCERTAINTY_MEASURE_WITH_UNIT(LENGTH_MEASURE(0.01),#252,
'DISTANCE_ACCURACY_VALUE',
'Maximum model space distance between geometric entities at asserted c
onnectivities');
#249=UNCERTAINTY_MEASURE_WITH_UNIT(LENGTH_MEASURE(0.01),#252,
'DISTANCE_ACCURACY_VALUE',
'Maximum model space distance between geometric entities at asserted c
onnectivities');
#250=(
GEOMETRIC_REPRESENTATION_CONTEXT(3)
GLOBAL_UNCERTAINTY_ASSIGNED_CONTEXT((#248))
GLOBAL_UNIT_ASSIGNED_CONTEXT((#252,#254,#255))
REPRESENTATION_CONTEXT('','3D')
);
#251=(
GEOMETRIC_REPRESENTATION_CONTEXT(3)
GLOBAL_UNCERTAINTY_ASSIGNED_CONTEXT((#249))
GLOBAL_UNIT_ASSIGNED_CONTEXT((#252,#254,#255))
REPRESENTATION_CONTEXT('','3D')
);
#252=(
LENGTH_UNIT()
NAMED_UNIT(*)
SI_UNIT(.MILLI.,.METRE.)
);
#253=(
LENGTH_UNIT()
NAMED_UNIT(*)
SI_UNIT(.CENTI.,.METRE.)
);
#254=(
NAMED_UNIT(*)
PLANE_ANGLE_UNIT()
SI_UNIT($,.RADIAN.)
);
#255=(
NAMED_UNIT(*)
SI_UNIT($,.STERADIAN.)
SOLID_ANGLE_UNIT()
);
#256=SHAPE_DEFINITION_REPRESENTATION(#257,#258);
#257=PRODUCT_DEFINITION_SHAPE('',$,#260);
#258=SHAPE_REPRESENTATION('',(#150),#250);
#259=PRODUCT_DEFINITION_CONTEXT('part definition',#264,'design');
#260=PRODUCT_DEFINITION('T-13 15\X\D704','T-13 15\X\D704',#261,#259);
#261=PRODUCT_DEFINITION_FORMATION('',$,#266);
#262=PRODUCT_RELATED_PRODUCT_CATEGORY('T-13 15\X\D704','T-13 15\X\D704',
(#266));
#263=APPLICATION_PROTOCOL_DEFINITION('international standard',
'automotive_design',2009,#264);
#264=APPLICATION_CONTEXT(
'Core Data for Automotive Mechanical Design Process');
#265=PRODUCT_CONTEXT('part definition',#264,'mechanical');
#266=PRODUCT('T-13 15\X\D704','T-13 15\X\D704',$,(#265));
#267=PRESENTATION_STYLE_ASSIGNMENT((#268));
#268=SURFACE_STYLE_USAGE(.BOTH.,#271);
#269=SURFACE_STYLE_RENDERING_WITH_PROPERTIES($,#275,(#270));
#270=SURFACE_STYLE_TRANSPARENT(0.);
#271=SURFACE_SIDE_STYLE('',(#272,#269));
#272=SURFACE_STYLE_FILL_AREA(#273);
#273=FILL_AREA_STYLE('',(#274));
#274=FILL_AREA_STYLE_COLOUR('',#275);
#275=COLOUR_RGB('',0.749019607843137,0.749019607843137,0.749019607843137);
ENDSEC;
END-ISO-10303-21;
