ISO-10303-21;
HEADER;
/* Generated by software containing ST-Developer
 * from STEP Tools, Inc. (www.steptools.com) 
 */

FILE_DESCRIPTION(
/* description */ (''),
/* implementation_level */ '2;1');

FILE_NAME(
/* name */ 
'\\\\Tske00\\w\\Work\\TOSTE\\\X2\7D99624B\X0\\\02_\X2\6EB663A5\X0\\\\X2\6EB663A530A830EB30DC\X0\\\
T-1 25.stp',
/* time_stamp */ '2022-04-12T13:45:22+09:00',
/* author */ ('3dcad-eng'),
/* organization */ (''),
/* preprocessor_version */ 'ST-DEVELOPER v18.1',
/* originating_system */ 'Autodesk Inventor 2022',
/* authorisation */ '');

FILE_SCHEMA (('AUTOMOTIVE_DESIGN { 1 0 10303 214 3 1 1 }'));
ENDSEC;

DATA;
#10=MECHANICAL_DESIGN_GEOMETRIC_PRESENTATION_REPRESENTATION('',(#13),#133);
#11=SHAPE_REPRESENTATION_RELATIONSHIP('SRR','None',#140,#12);
#12=ADVANCED_BREP_SHAPE_REPRESENTATION('',(#14),#132);
#13=STYLED_ITEM('',(#149),#14);
#14=MANIFOLD_SOLID_BREP('\X2\30BD30EA30C330C9\X0\1',#63);
#15=FACE_BOUND('',#26,.T.);
#16=FACE_BOUND('',#28,.T.);
#17=PLANE('',#91);
#18=PLANE('',#92);
#19=FACE_OUTER_BOUND('',#23,.T.);
#20=FACE_OUTER_BOUND('',#24,.T.);
#21=FACE_OUTER_BOUND('',#25,.T.);
#22=FACE_OUTER_BOUND('',#27,.T.);
#23=EDGE_LOOP('',(#45,#46,#47,#48));
#24=EDGE_LOOP('',(#49,#50,#51,#52));
#25=EDGE_LOOP('',(#53));
#26=EDGE_LOOP('',(#54));
#27=EDGE_LOOP('',(#55));
#28=EDGE_LOOP('',(#56));
#29=CIRCLE('',#84,29.75);
#30=CIRCLE('',#85,71.85);
#31=CIRCLE('',#86,29.75);
#32=CIRCLE('',#88,31.75);
#33=CIRCLE('',#89,69.85);
#34=CIRCLE('',#90,31.75);
#35=VERTEX_POINT('',#117);
#36=VERTEX_POINT('',#119);
#37=VERTEX_POINT('',#123);
#38=VERTEX_POINT('',#125);
#39=EDGE_CURVE('',#35,#35,#29,.T.);
#40=EDGE_CURVE('',#35,#36,#30,.T.);
#41=EDGE_CURVE('',#36,#36,#31,.T.);
#42=EDGE_CURVE('',#37,#37,#32,.T.);
#43=EDGE_CURVE('',#37,#38,#33,.T.);
#44=EDGE_CURVE('',#38,#38,#34,.T.);
#45=ORIENTED_EDGE('',*,*,#39,.F.);
#46=ORIENTED_EDGE('',*,*,#40,.T.);
#47=ORIENTED_EDGE('',*,*,#41,.T.);
#48=ORIENTED_EDGE('',*,*,#40,.F.);
#49=ORIENTED_EDGE('',*,*,#42,.F.);
#50=ORIENTED_EDGE('',*,*,#43,.T.);
#51=ORIENTED_EDGE('',*,*,#44,.T.);
#52=ORIENTED_EDGE('',*,*,#43,.F.);
#53=ORIENTED_EDGE('',*,*,#42,.T.);
#54=ORIENTED_EDGE('',*,*,#39,.T.);
#55=ORIENTED_EDGE('',*,*,#44,.F.);
#56=ORIENTED_EDGE('',*,*,#41,.F.);
#57=TOROIDAL_SURFACE('',#83,101.6,29.75);
#58=TOROIDAL_SURFACE('',#87,101.6,31.75);
#59=ADVANCED_FACE('',(#19),#57,.F.);
#60=ADVANCED_FACE('',(#20),#58,.T.);
#61=ADVANCED_FACE('',(#21,#15),#17,.T.);
#62=ADVANCED_FACE('',(#22,#16),#18,.F.);
#63=CLOSED_SHELL('',(#59,#60,#61,#62));
#64=DERIVED_UNIT_ELEMENT(#66,1.);
#65=DERIVED_UNIT_ELEMENT(#135,-3.);
#66=(
MASS_UNIT()
NAMED_UNIT(*)
SI_UNIT($,.GRAM.)
);
#67=DERIVED_UNIT((#64,#65));
#68=MEASURE_REPRESENTATION_ITEM('density measure',
POSITIVE_RATIO_MEASURE(1.),#67);
#69=PROPERTY_DEFINITION_REPRESENTATION(#74,#71);
#70=PROPERTY_DEFINITION_REPRESENTATION(#75,#72);
#71=REPRESENTATION('material name',(#73),#132);
#72=REPRESENTATION('density',(#68),#132);
#73=DESCRIPTIVE_REPRESENTATION_ITEM('\X2\4E00822C\X0\','\X2\4E00822C\X0\');
#74=PROPERTY_DEFINITION('material property','material name',#142);
#75=PROPERTY_DEFINITION('material property','density of part',#142);
#76=DATE_TIME_ROLE('creation_date');
#77=APPLIED_DATE_AND_TIME_ASSIGNMENT(#78,#76,(#142));
#78=DATE_AND_TIME(#79,#80);
#79=CALENDAR_DATE(2022,24,3);
#80=LOCAL_TIME(0,0,0.,#81);
#81=COORDINATED_UNIVERSAL_TIME_OFFSET(0,0,.BEHIND.);
#82=AXIS2_PLACEMENT_3D('placement',#115,#93,#94);
#83=AXIS2_PLACEMENT_3D('',#116,#95,#96);
#84=AXIS2_PLACEMENT_3D('',#118,#97,#98);
#85=AXIS2_PLACEMENT_3D('',#120,#99,#100);
#86=AXIS2_PLACEMENT_3D('',#121,#101,#102);
#87=AXIS2_PLACEMENT_3D('',#122,#103,#104);
#88=AXIS2_PLACEMENT_3D('',#124,#105,#106);
#89=AXIS2_PLACEMENT_3D('',#126,#107,#108);
#90=AXIS2_PLACEMENT_3D('',#127,#109,#110);
#91=AXIS2_PLACEMENT_3D('',#128,#111,#112);
#92=AXIS2_PLACEMENT_3D('',#129,#113,#114);
#93=DIRECTION('axis',(0.,0.,1.));
#94=DIRECTION('refdir',(1.,0.,0.));
#95=DIRECTION('center_axis',(0.,0.,-1.));
#96=DIRECTION('ref_axis',(-1.,0.,0.));
#97=DIRECTION('center_axis',(1.60812264967664E-16,1.,0.));
#98=DIRECTION('ref_axis',(-1.,1.60812264967664E-16,0.));
#99=DIRECTION('center_axis',(0.,0.,1.));
#100=DIRECTION('ref_axis',(-1.,0.,0.));
#101=DIRECTION('center_axis',(-1.,0.,0.));
#102=DIRECTION('ref_axis',(0.,-1.,0.));
#103=DIRECTION('center_axis',(0.,0.,-1.));
#104=DIRECTION('ref_axis',(-1.,0.,0.));
#105=DIRECTION('center_axis',(-1.60812264967664E-16,-1.,0.));
#106=DIRECTION('ref_axis',(1.,-1.60812264967664E-16,0.));
#107=DIRECTION('center_axis',(0.,0.,1.));
#108=DIRECTION('ref_axis',(-1.,0.,0.));
#109=DIRECTION('center_axis',(1.,0.,0.));
#110=DIRECTION('ref_axis',(0.,1.,0.));
#111=DIRECTION('center_axis',(-1.60812264967664E-16,-1.,0.));
#112=DIRECTION('ref_axis',(0.,0.,-1.));
#113=DIRECTION('center_axis',(1.,0.,0.));
#114=DIRECTION('ref_axis',(0.,0.,-1.));
#115=CARTESIAN_POINT('',(0.,0.,0.));
#116=CARTESIAN_POINT('Origin',(-101.6,-101.6,0.));
#117=CARTESIAN_POINT('',(-29.7499999999999,-101.6,3.64332422746338E-15));
#118=CARTESIAN_POINT('Origin',(5.32907051820075E-14,-101.6,0.));
#119=CARTESIAN_POINT('',(-101.6,-29.75,3.64332422746338E-15));
#120=CARTESIAN_POINT('Origin',(-101.6,-101.6,3.64332422746338E-15));
#121=CARTESIAN_POINT('Origin',(-101.6,0.,0.));
#122=CARTESIAN_POINT('Origin',(-101.6,-101.6,0.));
#123=CARTESIAN_POINT('',(-31.75,-101.6,3.88825358729285E-15));
#124=CARTESIAN_POINT('Origin',(5.32907051820075E-14,-101.6,0.));
#125=CARTESIAN_POINT('',(-101.6,-31.75,3.88825358729285E-15));
#126=CARTESIAN_POINT('Origin',(-101.6,-101.6,3.88825358729285E-15));
#127=CARTESIAN_POINT('Origin',(-101.6,0.,0.));
#128=CARTESIAN_POINT('Origin',(5.32907051820075E-14,-101.6,0.));
#129=CARTESIAN_POINT('Origin',(-101.6,0.,0.));
#130=UNCERTAINTY_MEASURE_WITH_UNIT(LENGTH_MEASURE(0.01),#134,
'DISTANCE_ACCURACY_VALUE',
'Maximum model space distance between geometric entities at asserted c
onnectivities');
#131=UNCERTAINTY_MEASURE_WITH_UNIT(LENGTH_MEASURE(0.01),#134,
'DISTANCE_ACCURACY_VALUE',
'Maximum model space distance between geometric entities at asserted c
onnectivities');
#132=(
GEOMETRIC_REPRESENTATION_CONTEXT(3)
GLOBAL_UNCERTAINTY_ASSIGNED_CONTEXT((#130))
GLOBAL_UNIT_ASSIGNED_CONTEXT((#134,#136,#137))
REPRESENTATION_CONTEXT('','3D')
);
#133=(
GEOMETRIC_REPRESENTATION_CONTEXT(3)
GLOBAL_UNCERTAINTY_ASSIGNED_CONTEXT((#131))
GLOBAL_UNIT_ASSIGNED_CONTEXT((#134,#136,#137))
REPRESENTATION_CONTEXT('','3D')
);
#134=(
LENGTH_UNIT()
NAMED_UNIT(*)
SI_UNIT(.MILLI.,.METRE.)
);
#135=(
LENGTH_UNIT()
NAMED_UNIT(*)
SI_UNIT(.CENTI.,.METRE.)
);
#136=(
NAMED_UNIT(*)
PLANE_ANGLE_UNIT()
SI_UNIT($,.RADIAN.)
);
#137=(
NAMED_UNIT(*)
SI_UNIT($,.STERADIAN.)
SOLID_ANGLE_UNIT()
);
#138=SHAPE_DEFINITION_REPRESENTATION(#139,#140);
#139=PRODUCT_DEFINITION_SHAPE('',$,#142);
#140=SHAPE_REPRESENTATION('',(#82),#132);
#141=PRODUCT_DEFINITION_CONTEXT('part definition',#146,'design');
#142=PRODUCT_DEFINITION('T-1 25','T-1 25',#143,#141);
#143=PRODUCT_DEFINITION_FORMATION('',$,#148);
#144=PRODUCT_RELATED_PRODUCT_CATEGORY('T-1 25','T-1 25',(#148));
#145=APPLICATION_PROTOCOL_DEFINITION('international standard',
'automotive_design',2009,#146);
#146=APPLICATION_CONTEXT(
'Core Data for Automotive Mechanical Design Process');
#147=PRODUCT_CONTEXT('part definition',#146,'mechanical');
#148=PRODUCT('T-1 25','T-1 25',$,(#147));
#149=PRESENTATION_STYLE_ASSIGNMENT((#150));
#150=SURFACE_STYLE_USAGE(.BOTH.,#153);
#151=SURFACE_STYLE_RENDERING_WITH_PROPERTIES($,#157,(#152));
#152=SURFACE_STYLE_TRANSPARENT(0.);
#153=SURFACE_SIDE_STYLE('',(#154,#151));
#154=SURFACE_STYLE_FILL_AREA(#155);
#155=FILL_AREA_STYLE('',(#156));
#156=FILL_AREA_STYLE_COLOUR('',#157);
#157=COLOUR_RGB('',0.749019607843137,0.749019607843137,0.749019607843137);
ENDSEC;
END-ISO-10303-21;
