ISO-10303-21;
HEADER;
/* Generated by software containing ST-Developer
 * from STEP Tools, Inc. (www.steptools.com) 
 */

FILE_DESCRIPTION(
/* description */ (''),
/* implementation_level */ '2;1');

FILE_NAME(
/* name */ 
'\\\\Tske00\\w\\Work\\TOSTE\\\X2\7D99624B\X0\\\02_\X2\6EB663A5\X0\\\\X2\6EB663A530A830EB30DC\X0\\\
D1(91.5\X\B0)\\D1(91.5\X\B0) 40.stp',
/* time_stamp */ '2022-04-13T15:45:33+09:00',
/* author */ ('3dcad-eng'),
/* organization */ (''),
/* preprocessor_version */ 'ST-DEVELOPER v18.1',
/* originating_system */ 'Autodesk Inventor 2022',
/* authorisation */ '');

FILE_SCHEMA (('AUTOMOTIVE_DESIGN { 1 0 10303 214 3 1 1 }'));
ENDSEC;

DATA;
#10=MECHANICAL_DESIGN_GEOMETRIC_PRESENTATION_REPRESENTATION('',(#16),#337);
#11=CONSTRUCTIVE_GEOMETRY_REPRESENTATION_RELATIONSHIP('CGRR','None',#344,
#12);
#12=CONSTRUCTIVE_GEOMETRY_REPRESENTATION('',(#13),#336);
#13=GEOMETRIC_CURVE_SET('\X2\30B930B130C330C1\X0\4',(#333));
#14=SHAPE_REPRESENTATION_RELATIONSHIP('SRR','None',#344,#15);
#15=ADVANCED_BREP_SHAPE_REPRESENTATION('',(#17),#336);
#16=STYLED_ITEM('',(#353),#17);
#17=MANIFOLD_SOLID_BREP('\X2\30BD30EA30C330C9\X0\5',#155);
#18=FACE_BOUND('',#36,.T.);
#19=FACE_BOUND('',#41,.T.);
#20=PLANE('',#185);
#21=PLANE('',#197);
#22=TOROIDAL_SURFACE('',#180,133.4,48.8);
#23=TOROIDAL_SURFACE('',#192,133.4,50.8);
#24=FACE_OUTER_BOUND('',#32,.T.);
#25=FACE_OUTER_BOUND('',#33,.T.);
#26=FACE_OUTER_BOUND('',#34,.T.);
#27=FACE_OUTER_BOUND('',#35,.T.);
#28=FACE_OUTER_BOUND('',#37,.T.);
#29=FACE_OUTER_BOUND('',#38,.T.);
#30=FACE_OUTER_BOUND('',#39,.T.);
#31=FACE_OUTER_BOUND('',#40,.T.);
#32=EDGE_LOOP('',(#101,#102,#103,#104,#105,#106,#107,#108));
#33=EDGE_LOOP('',(#109,#110,#111,#112,#113,#114));
#34=EDGE_LOOP('',(#115,#116,#117,#118));
#35=EDGE_LOOP('',(#119));
#36=EDGE_LOOP('',(#120));
#37=EDGE_LOOP('',(#121,#122,#123,#124,#125,#126,#127,#128,#129));
#38=EDGE_LOOP('',(#130,#131,#132,#133,#134,#135));
#39=EDGE_LOOP('',(#136,#137,#138,#139,#140));
#40=EDGE_LOOP('',(#141));
#41=EDGE_LOOP('',(#142));
#42=ELLIPSE('',#177,48.8041811725997,48.8);
#43=ELLIPSE('',#178,48.8041811725997,48.8);
#44=ELLIPSE('',#179,48.8041811725997,48.8);
#45=ELLIPSE('',#188,50.8043525321324,50.8);
#46=ELLIPSE('',#189,50.8043525321324,50.8);
#47=ELLIPSE('',#190,50.8043525321324,50.8);
#48=ELLIPSE('',#191,50.8043525321324,50.8);
#49=CIRCLE('',#176,48.8);
#50=CIRCLE('',#181,48.8);
#51=CIRCLE('',#182,84.6);
#52=CIRCLE('',#183,48.8);
#53=CIRCLE('',#186,50.8);
#54=CIRCLE('',#193,50.8);
#55=CIRCLE('',#194,82.6);
#56=CIRCLE('',#195,50.8);
#57=LINE('',#265,#59);
#58=LINE('',#294,#60);
#59=VECTOR('',#202,48.8);
#60=VECTOR('',#227,50.8);
#61=B_SPLINE_CURVE_WITH_KNOTS('',3,(#252,#253,#254,#255,#256,#257,#258,
#259,#260,#261,#262,#263),.UNSPECIFIED.,.F.,.F.,(4,2,2,2,2,4),(-8.7449449802081,
-6.93187027345148,-5.4867942271381,-4.83107528838833,-4.4117981738368,-4.37309526716301),
 .UNSPECIFIED.);
#62=B_SPLINE_CURVE_WITH_KNOTS('',3,(#268,#269,#270,#271,#272,#273,#274,
#275,#276,#277),.UNSPECIFIED.,.F.,.F.,(4,2,2,2,4),(-4.37309526716301,-4.01216953686354,
-3.44066893034106,-1.90551675234743,0.),.UNSPECIFIED.);
#63=B_SPLINE_CURVE_WITH_KNOTS('',3,(#300,#301,#302,#303,#304,#305,#306,
#307,#308,#309),.UNSPECIFIED.,.F.,.F.,(4,2,2,2,4),(-4.71192357047662,-4.32457355186457,
-3.7177002807102,-1.99640557495184,0.),.UNSPECIFIED.);
#64=B_SPLINE_CURVE_WITH_KNOTS('',3,(#311,#312,#313,#314,#315,#316,#317,
#318,#319,#320,#321,#322),.UNSPECIFIED.,.F.,.F.,(4,2,2,2,2,4),(-9.4230417781297,
-7.38456522156311,-5.87061038169156,-5.18673056446559,-4.74850905838613,
-4.71192357047662),.UNSPECIFIED.);
#65=VERTEX_POINT('',#250);
#66=VERTEX_POINT('',#251);
#67=VERTEX_POINT('',#264);
#68=VERTEX_POINT('',#267);
#69=VERTEX_POINT('',#278);
#70=VERTEX_POINT('',#280);
#71=VERTEX_POINT('',#284);
#72=VERTEX_POINT('',#290);
#73=VERTEX_POINT('',#293);
#74=VERTEX_POINT('',#295);
#75=VERTEX_POINT('',#297);
#76=VERTEX_POINT('',#299);
#77=VERTEX_POINT('',#310);
#78=VERTEX_POINT('',#323);
#79=VERTEX_POINT('',#328);
#80=EDGE_CURVE('',#65,#66,#61,.T.);
#81=EDGE_CURVE('',#66,#67,#57,.T.);
#82=EDGE_CURVE('',#67,#67,#49,.T.);
#83=EDGE_CURVE('',#66,#68,#62,.T.);
#84=EDGE_CURVE('',#68,#69,#42,.T.);
#85=EDGE_CURVE('',#69,#70,#43,.T.);
#86=EDGE_CURVE('',#70,#65,#44,.T.);
#87=EDGE_CURVE('',#71,#71,#50,.T.);
#88=EDGE_CURVE('',#71,#66,#51,.T.);
#89=EDGE_CURVE('',#65,#68,#52,.T.);
#90=EDGE_CURVE('',#72,#72,#53,.T.);
#91=EDGE_CURVE('',#72,#73,#58,.T.);
#92=EDGE_CURVE('',#74,#73,#45,.T.);
#93=EDGE_CURVE('',#75,#74,#46,.T.);
#94=EDGE_CURVE('',#76,#75,#63,.T.);
#95=EDGE_CURVE('',#77,#76,#64,.T.);
#96=EDGE_CURVE('',#78,#77,#47,.T.);
#97=EDGE_CURVE('',#73,#78,#48,.T.);
#98=EDGE_CURVE('',#77,#75,#54,.T.);
#99=EDGE_CURVE('',#76,#79,#55,.T.);
#100=EDGE_CURVE('',#79,#79,#56,.T.);
#101=ORIENTED_EDGE('',*,*,#80,.T.);
#102=ORIENTED_EDGE('',*,*,#81,.T.);
#103=ORIENTED_EDGE('',*,*,#82,.F.);
#104=ORIENTED_EDGE('',*,*,#81,.F.);
#105=ORIENTED_EDGE('',*,*,#83,.T.);
#106=ORIENTED_EDGE('',*,*,#84,.T.);
#107=ORIENTED_EDGE('',*,*,#85,.T.);
#108=ORIENTED_EDGE('',*,*,#86,.T.);
#109=ORIENTED_EDGE('',*,*,#87,.F.);
#110=ORIENTED_EDGE('',*,*,#88,.T.);
#111=ORIENTED_EDGE('',*,*,#80,.F.);
#112=ORIENTED_EDGE('',*,*,#89,.T.);
#113=ORIENTED_EDGE('',*,*,#83,.F.);
#114=ORIENTED_EDGE('',*,*,#88,.F.);
#115=ORIENTED_EDGE('',*,*,#86,.F.);
#116=ORIENTED_EDGE('',*,*,#85,.F.);
#117=ORIENTED_EDGE('',*,*,#84,.F.);
#118=ORIENTED_EDGE('',*,*,#89,.F.);
#119=ORIENTED_EDGE('',*,*,#90,.T.);
#120=ORIENTED_EDGE('',*,*,#82,.T.);
#121=ORIENTED_EDGE('',*,*,#90,.F.);
#122=ORIENTED_EDGE('',*,*,#91,.T.);
#123=ORIENTED_EDGE('',*,*,#92,.F.);
#124=ORIENTED_EDGE('',*,*,#93,.F.);
#125=ORIENTED_EDGE('',*,*,#94,.F.);
#126=ORIENTED_EDGE('',*,*,#95,.F.);
#127=ORIENTED_EDGE('',*,*,#96,.F.);
#128=ORIENTED_EDGE('',*,*,#97,.F.);
#129=ORIENTED_EDGE('',*,*,#91,.F.);
#130=ORIENTED_EDGE('',*,*,#94,.T.);
#131=ORIENTED_EDGE('',*,*,#98,.F.);
#132=ORIENTED_EDGE('',*,*,#95,.T.);
#133=ORIENTED_EDGE('',*,*,#99,.T.);
#134=ORIENTED_EDGE('',*,*,#100,.T.);
#135=ORIENTED_EDGE('',*,*,#99,.F.);
#136=ORIENTED_EDGE('',*,*,#96,.T.);
#137=ORIENTED_EDGE('',*,*,#98,.T.);
#138=ORIENTED_EDGE('',*,*,#93,.T.);
#139=ORIENTED_EDGE('',*,*,#92,.T.);
#140=ORIENTED_EDGE('',*,*,#97,.T.);
#141=ORIENTED_EDGE('',*,*,#100,.F.);
#142=ORIENTED_EDGE('',*,*,#87,.T.);
#143=CYLINDRICAL_SURFACE('',#175,48.8);
#144=CYLINDRICAL_SURFACE('',#184,48.8);
#145=CYLINDRICAL_SURFACE('',#187,50.8);
#146=CYLINDRICAL_SURFACE('',#196,50.8);
#147=ADVANCED_FACE('',(#24),#143,.F.);
#148=ADVANCED_FACE('',(#25),#22,.F.);
#149=ADVANCED_FACE('',(#26),#144,.F.);
#150=ADVANCED_FACE('',(#27,#18),#20,.T.);
#151=ADVANCED_FACE('',(#28),#145,.T.);
#152=ADVANCED_FACE('',(#29),#23,.T.);
#153=ADVANCED_FACE('',(#30),#146,.T.);
#154=ADVANCED_FACE('',(#31,#19),#21,.F.);
#155=CLOSED_SHELL('',(#147,#148,#149,#150,#151,#152,#153,#154));
#156=DERIVED_UNIT_ELEMENT(#158,1.);
#157=DERIVED_UNIT_ELEMENT(#339,-3.);
#158=(
MASS_UNIT()
NAMED_UNIT(*)
SI_UNIT($,.GRAM.)
);
#159=DERIVED_UNIT((#156,#157));
#160=MEASURE_REPRESENTATION_ITEM('density measure',
POSITIVE_RATIO_MEASURE(1.),#159);
#161=PROPERTY_DEFINITION_REPRESENTATION(#166,#163);
#162=PROPERTY_DEFINITION_REPRESENTATION(#167,#164);
#163=REPRESENTATION('material name',(#165),#336);
#164=REPRESENTATION('density',(#160),#336);
#165=DESCRIPTIVE_REPRESENTATION_ITEM('\X2\4E00822C\X0\','\X2\4E00822C\X0\');
#166=PROPERTY_DEFINITION('material property','material name',#346);
#167=PROPERTY_DEFINITION('material property','density of part',#346);
#168=DATE_TIME_ROLE('creation_date');
#169=APPLIED_DATE_AND_TIME_ASSIGNMENT(#170,#168,(#346));
#170=DATE_AND_TIME(#171,#172);
#171=CALENDAR_DATE(2022,13,4);
#172=LOCAL_TIME(0,0,0.,#173);
#173=COORDINATED_UNIVERSAL_TIME_OFFSET(0,0,.BEHIND.);
#174=AXIS2_PLACEMENT_3D('placement',#248,#198,#199);
#175=AXIS2_PLACEMENT_3D('',#249,#200,#201);
#176=AXIS2_PLACEMENT_3D('',#266,#203,#204);
#177=AXIS2_PLACEMENT_3D('',#279,#205,#206);
#178=AXIS2_PLACEMENT_3D('',#281,#207,#208);
#179=AXIS2_PLACEMENT_3D('',#282,#209,#210);
#180=AXIS2_PLACEMENT_3D('',#283,#211,#212);
#181=AXIS2_PLACEMENT_3D('',#285,#213,#214);
#182=AXIS2_PLACEMENT_3D('',#286,#215,#216);
#183=AXIS2_PLACEMENT_3D('',#287,#217,#218);
#184=AXIS2_PLACEMENT_3D('',#288,#219,#220);
#185=AXIS2_PLACEMENT_3D('',#289,#221,#222);
#186=AXIS2_PLACEMENT_3D('',#291,#223,#224);
#187=AXIS2_PLACEMENT_3D('',#292,#225,#226);
#188=AXIS2_PLACEMENT_3D('',#296,#228,#229);
#189=AXIS2_PLACEMENT_3D('',#298,#230,#231);
#190=AXIS2_PLACEMENT_3D('',#324,#232,#233);
#191=AXIS2_PLACEMENT_3D('',#325,#234,#235);
#192=AXIS2_PLACEMENT_3D('',#326,#236,#237);
#193=AXIS2_PLACEMENT_3D('',#327,#238,#239);
#194=AXIS2_PLACEMENT_3D('',#329,#240,#241);
#195=AXIS2_PLACEMENT_3D('',#330,#242,#243);
#196=AXIS2_PLACEMENT_3D('',#331,#244,#245);
#197=AXIS2_PLACEMENT_3D('',#332,#246,#247);
#198=DIRECTION('axis',(0.,0.,1.));
#199=DIRECTION('refdir',(1.,0.,0.));
#200=DIRECTION('center_axis',(-0.999657324975557,-0.0261769483078737,0.));
#201=DIRECTION('ref_axis',(-0.0261769483078737,0.999657324975557,0.));
#202=DIRECTION('',(-0.999657324975557,-0.0261769483078737,0.));
#203=DIRECTION('center_axis',(0.999657324975557,0.0261769483078735,0.));
#204=DIRECTION('ref_axis',(-0.0261769483078737,0.999657324975557,0.));
#205=DIRECTION('center_axis',(0.999914327574007,0.0130895955713462,0.));
#206=DIRECTION('ref_axis',(-0.0130895955713462,0.999914327574007,0.));
#207=DIRECTION('center_axis',(0.999914327574007,0.0130895955713448,0.));
#208=DIRECTION('ref_axis',(-0.0130895955713448,0.999914327574007,0.));
#209=DIRECTION('center_axis',(0.999914327574007,0.0130895955713462,0.));
#210=DIRECTION('ref_axis',(-0.0130895955713462,0.999914327574007,0.));
#211=DIRECTION('center_axis',(0.,0.,1.));
#212=DIRECTION('ref_axis',(1.,0.,0.));
#213=DIRECTION('center_axis',(0.,1.,0.));
#214=DIRECTION('ref_axis',(1.,0.,0.));
#215=DIRECTION('center_axis',(0.,0.,1.));
#216=DIRECTION('ref_axis',(1.,0.,0.));
#217=DIRECTION('center_axis',(-1.,6.12323399573677E-17,0.));
#218=DIRECTION('ref_axis',(6.12323399573677E-17,1.,0.));
#219=DIRECTION('center_axis',(-1.,-1.22464679914755E-16,0.));
#220=DIRECTION('ref_axis',(-1.22464679914755E-16,1.,0.));
#221=DIRECTION('center_axis',(-0.999657324975557,-0.0261769483078735,0.));
#222=DIRECTION('ref_axis',(0.,0.,1.));
#223=DIRECTION('center_axis',(-0.999657324975557,-0.0261769483078735,0.));
#224=DIRECTION('ref_axis',(0.0261769483078735,-0.999657324975557,0.));
#225=DIRECTION('center_axis',(-0.999657324975557,-0.0261769483078737,0.));
#226=DIRECTION('ref_axis',(0.0261769483078737,-0.999657324975557,0.));
#227=DIRECTION('',(0.999657324975557,0.0261769483078737,0.));
#228=DIRECTION('center_axis',(0.999914327574007,0.0130895955713448,0.));
#229=DIRECTION('ref_axis',(0.0130895955713448,-0.999914327574007,0.));
#230=DIRECTION('center_axis',(0.999914327574007,0.0130895955713426,0.));
#231=DIRECTION('ref_axis',(0.0130895955713426,-0.999914327574007,0.));
#232=DIRECTION('center_axis',(0.999914327574007,0.0130895955713426,0.));
#233=DIRECTION('ref_axis',(0.0130895955713426,-0.999914327574007,0.));
#234=DIRECTION('center_axis',(0.999914327574007,0.0130895955713448,0.));
#235=DIRECTION('ref_axis',(0.0130895955713448,-0.999914327574007,0.));
#236=DIRECTION('center_axis',(0.,0.,1.));
#237=DIRECTION('ref_axis',(1.,0.,0.));
#238=DIRECTION('center_axis',(-1.,6.12323399573677E-17,0.));
#239=DIRECTION('ref_axis',(-6.12323399573677E-17,-1.,0.));
#240=DIRECTION('center_axis',(0.,0.,-1.));
#241=DIRECTION('ref_axis',(1.,0.,0.));
#242=DIRECTION('center_axis',(0.,1.,0.));
#243=DIRECTION('ref_axis',(-1.,0.,0.));
#244=DIRECTION('center_axis',(-1.,-1.22464679914755E-16,0.));
#245=DIRECTION('ref_axis',(-1.22464679914755E-16,1.,1.22464679914735E-16));
#246=DIRECTION('center_axis',(0.,1.,0.));
#247=DIRECTION('ref_axis',(0.,0.,1.));
#248=CARTESIAN_POINT('',(0.,0.,0.));
#249=CARTESIAN_POINT('Origin',(-133.8,-3.60822483003176E-14,0.));
#250=CARTESIAN_POINT('',(-133.4,-30.5560037244438,38.0495812906236));
#251=CARTESIAN_POINT('',(-133.172821433008,-48.8003050247893,5.97627637983908E-15));
#252=CARTESIAN_POINT('Ctrl Pts',(-133.4,-30.5560037244346,38.0495812906311));
#253=CARTESIAN_POINT('Ctrl Pts',(-133.338317034519,-35.2679660319286,34.265604360177));
#254=CARTESIAN_POINT('Ctrl Pts',(-133.288529352876,-39.2364170938874,29.6390122058486));
#255=CARTESIAN_POINT('Ctrl Pts',(-133.22185505183,-44.6679043432395,20.2345069541497));
#256=CARTESIAN_POINT('Ctrl Pts',(-133.200661656357,-46.4461492346104,15.7295492766216));
#257=CARTESIAN_POINT('Ctrl Pts',(-133.181885413212,-48.0300351384031,8.90841241346368));
#258=CARTESIAN_POINT('Ctrl Pts',(-133.177755286207,-48.3808114609543,6.74852397170735));
#259=CARTESIAN_POINT('Ctrl Pts',(-133.173804723606,-48.716568736403,3.1809764765163));
#260=CARTESIAN_POINT('Ctrl Pts',(-133.172969676784,-48.787686351286,1.78455395442024));
#261=CARTESIAN_POINT('Ctrl Pts',(-133.172827442283,-48.7997935004938,0.25800426844608));
#262=CARTESIAN_POINT('Ctrl Pts',(-133.172821433009,-48.8003050247893,0.129000021902994));
#263=CARTESIAN_POINT('Ctrl Pts',(-133.172821433009,-48.8003050247893,5.96744875736022E-15));
#264=CARTESIAN_POINT('',(-133.622564922576,-48.8120819725333,5.97627637983908E-15));
#265=CARTESIAN_POINT('',(-132.522564922576,-48.7832774588072,5.97627637983908E-15));
#266=CARTESIAN_POINT('Origin',(-134.9,-0.0288045137261421,0.));
#267=CARTESIAN_POINT('',(-133.4,-30.5560037244438,-38.0495812906236));
#268=CARTESIAN_POINT('Ctrl Pts',(-133.172821433009,-48.8003050247893,5.82867087928207E-15));
#269=CARTESIAN_POINT('Ctrl Pts',(-133.172821433009,-48.8003050247893,-1.20299561752309));
#270=CARTESIAN_POINT('Ctrl Pts',(-133.173343785423,-48.7558198930214,-2.40562383581817));
#271=CARTESIAN_POINT('Ctrl Pts',(-133.176044144927,-48.5261820690917,-5.50521073207146));
#272=CARTESIAN_POINT('Ctrl Pts',(-133.179007033027,-48.2743072624176,-7.39512901311307));
#273=CARTESIAN_POINT('Ctrl Pts',(-133.194770751747,-46.9409963683501,-14.2895351652244));
#274=CARTESIAN_POINT('Ctrl Pts',(-133.215598640541,-45.1851642129231,-19.1296093927893));
#275=CARTESIAN_POINT('Ctrl Pts',(-133.283515484066,-39.6368542916196,-29.1668850935045));
#276=CARTESIAN_POINT('Ctrl Pts',(-133.335172034519,-35.5082126111752,-34.0726725296224));
#277=CARTESIAN_POINT('Ctrl Pts',(-133.4,-30.5560037244346,-38.049581290631));
#278=CARTESIAN_POINT('',(-133.8,-7.74194839239073E-13,-48.8));
#279=CARTESIAN_POINT('Origin',(-133.8,-3.56170620658534E-14,0.));
#280=CARTESIAN_POINT('',(-133.8,-7.74194839239073E-13,48.8));
#281=CARTESIAN_POINT('Origin',(-133.8,-3.70059629694593E-14,0.));
#282=CARTESIAN_POINT('Origin',(-133.8,-3.56170620658534E-14,0.));
#283=CARTESIAN_POINT('Origin',(-133.4,-133.4,0.));
#284=CARTESIAN_POINT('',(-48.8,-133.4,5.97627637983908E-15));
#285=CARTESIAN_POINT('Origin',(0.,-133.4,0.));
#286=CARTESIAN_POINT('Origin',(-133.4,-133.4,-5.97627637983908E-15));
#287=CARTESIAN_POINT('Origin',(-133.4,-3.5527136788005E-14,0.));
#288=CARTESIAN_POINT('Origin',(-133.4,-3.5527136788005E-14,0.));
#289=CARTESIAN_POINT('Origin',(-134.9,-0.0288045137261422,0.));
#290=CARTESIAN_POINT('',(-136.22978897404,50.7537875950322,-6.22120573966855E-15));
#291=CARTESIAN_POINT('Origin',(-134.9,-0.0288045137261422,0.));
#292=CARTESIAN_POINT('Origin',(-133.8,-3.60822483003176E-14,0.));
#293=CARTESIAN_POINT('',(-134.46500842791,50.8,-6.22120573966856E-15));
#294=CARTESIAN_POINT('',(-135.12978897404,50.7825921087583,-6.22120573966855E-15));
#295=CARTESIAN_POINT('',(-133.8,-7.74194839239532E-13,-50.8));
#296=CARTESIAN_POINT('Origin',(-133.8,-3.51459789230066E-14,0.));
#297=CARTESIAN_POINT('',(-133.4,-30.5560037244485,-40.5828860037269));
#298=CARTESIAN_POINT('Origin',(-133.8,-3.56170620658534E-14,0.));
#299=CARTESIAN_POINT('',(-133.149497551097,-50.8003798524286,0.));
#300=CARTESIAN_POINT('Ctrl Pts',(-133.149497551097,-50.8003798524286,-2.77555756156289E-16));
#301=CARTESIAN_POINT('Ctrl Pts',(-133.149497551097,-50.8003798524286,-1.29107581330456));
#302=CARTESIAN_POINT('Ctrl Pts',(-133.150066918752,-50.7511590861775,-2.58172650339047));
#303=CARTESIAN_POINT('Ctrl Pts',(-133.152991787344,-50.4987357707371,-5.88617001258346));
#304=CARTESIAN_POINT('Ctrl Pts',(-133.156172945707,-50.2243095999558,-7.89219400222872));
#305=CARTESIAN_POINT('Ctrl Pts',(-133.173764774244,-48.7154600704419,-15.5046278138249));
#306=CARTESIAN_POINT('Ctrl Pts',(-133.197886449265,-46.6544098011813,-20.9032526351382));
#307=CARTESIAN_POINT('Ctrl Pts',(-133.274554522158,-40.3502264579165,-31.5719422672957));
#308=CARTESIAN_POINT('Ctrl Pts',(-133.330410065979,-35.871979432276,-36.5803374044839));
#309=CARTESIAN_POINT('Ctrl Pts',(-133.400000000001,-30.5560037244485,-40.5828860037269));
#310=CARTESIAN_POINT('',(-133.4,-30.5560037244485,40.5828860037269));
#311=CARTESIAN_POINT('Ctrl Pts',(-133.4,-30.5560037244486,40.5828860037268));
#312=CARTESIAN_POINT('Ctrl Pts',(-133.328943573865,-35.9840047785738,36.4959903499547));
#313=CARTESIAN_POINT('Ctrl Pts',(-133.272223002318,-40.53746196157,31.3612635031146));
#314=CARTESIAN_POINT('Ctrl Pts',(-133.200080345374,-46.4775868517236,21.117779387694));
#315=CARTESIAN_POINT('Ctrl Pts',(-133.178128272943,-48.3445769931209,16.399288554408));
#316=CARTESIAN_POINT('Ctrl Pts',(-133.158769687835,-50.0007081531111,9.26285801478703));
#317=CARTESIAN_POINT('Ctrl Pts',(-133.154531733185,-50.3659754822776,7.01010715632173));
#318=CARTESIAN_POINT('Ctrl Pts',(-133.15048499448,-50.7150221803725,3.28610009050331));
#319=CARTESIAN_POINT('Ctrl Pts',(-133.14963455914,-50.7885425222966,1.82653609393342));
#320=CARTESIAN_POINT('Ctrl Pts',(-133.149502633215,-50.799940757103,0.243889871177811));
#321=CARTESIAN_POINT('Ctrl Pts',(-133.149497551097,-50.8003798524286,0.121943039339883));
#322=CARTESIAN_POINT('Ctrl Pts',(-133.149497551097,-50.8003798524286,3.46944695195361E-17));
#323=CARTESIAN_POINT('',(-133.8,-7.74194839239532E-13,50.8));
#324=CARTESIAN_POINT('Origin',(-133.8,-3.56170620658534E-14,0.));
#325=CARTESIAN_POINT('Origin',(-133.8,-3.51459789230066E-14,0.));
#326=CARTESIAN_POINT('Origin',(-133.4,-133.4,0.));
#327=CARTESIAN_POINT('Origin',(-133.4,-3.5527136788005E-14,0.));
#328=CARTESIAN_POINT('',(-50.8,-133.4,0.));
#329=CARTESIAN_POINT('Origin',(-133.4,-133.4,-6.22120573966855E-15));
#330=CARTESIAN_POINT('Origin',(0.,-133.4,0.));
#331=CARTESIAN_POINT('Origin',(-133.4,-3.5527136788005E-14,0.));
#332=CARTESIAN_POINT('Origin',(0.,-133.4,0.));
#333=CARTESIAN_POINT('',(0.,0.,0.));
#334=UNCERTAINTY_MEASURE_WITH_UNIT(LENGTH_MEASURE(0.01),#338,
'DISTANCE_ACCURACY_VALUE',
'Maximum model space distance between geometric entities at asserted c
onnectivities');
#335=UNCERTAINTY_MEASURE_WITH_UNIT(LENGTH_MEASURE(0.01),#338,
'DISTANCE_ACCURACY_VALUE',
'Maximum model space distance between geometric entities at asserted c
onnectivities');
#336=(
GEOMETRIC_REPRESENTATION_CONTEXT(3)
GLOBAL_UNCERTAINTY_ASSIGNED_CONTEXT((#334))
GLOBAL_UNIT_ASSIGNED_CONTEXT((#338,#340,#341))
REPRESENTATION_CONTEXT('','3D')
);
#337=(
GEOMETRIC_REPRESENTATION_CONTEXT(3)
GLOBAL_UNCERTAINTY_ASSIGNED_CONTEXT((#335))
GLOBAL_UNIT_ASSIGNED_CONTEXT((#338,#340,#341))
REPRESENTATION_CONTEXT('','3D')
);
#338=(
LENGTH_UNIT()
NAMED_UNIT(*)
SI_UNIT(.MILLI.,.METRE.)
);
#339=(
LENGTH_UNIT()
NAMED_UNIT(*)
SI_UNIT(.CENTI.,.METRE.)
);
#340=(
NAMED_UNIT(*)
PLANE_ANGLE_UNIT()
SI_UNIT($,.RADIAN.)
);
#341=(
NAMED_UNIT(*)
SI_UNIT($,.STERADIAN.)
SOLID_ANGLE_UNIT()
);
#342=SHAPE_DEFINITION_REPRESENTATION(#343,#344);
#343=PRODUCT_DEFINITION_SHAPE('',$,#346);
#344=SHAPE_REPRESENTATION('',(#174),#336);
#345=PRODUCT_DEFINITION_CONTEXT('part definition',#350,'design');
#346=PRODUCT_DEFINITION('D1(91.5\X\B0) 03','D1(91.5\X\B0) 40',#347,#345);
#347=PRODUCT_DEFINITION_FORMATION('',$,#352);
#348=PRODUCT_RELATED_PRODUCT_CATEGORY('D1(91.5\X\B0) 40',
'D1(91.5\X\B0) 40',(#352));
#349=APPLICATION_PROTOCOL_DEFINITION('international standard',
'automotive_design',2009,#350);
#350=APPLICATION_CONTEXT(
'Core Data for Automotive Mechanical Design Process');
#351=PRODUCT_CONTEXT('part definition',#350,'mechanical');
#352=PRODUCT('D1(91.5\X\B0) 03','D1(91.5\X\B0) 40',$,(#351));
#353=PRESENTATION_STYLE_ASSIGNMENT((#354));
#354=SURFACE_STYLE_USAGE(.BOTH.,#357);
#355=SURFACE_STYLE_RENDERING_WITH_PROPERTIES($,#361,(#356));
#356=SURFACE_STYLE_TRANSPARENT(0.);
#357=SURFACE_SIDE_STYLE('',(#358,#355));
#358=SURFACE_STYLE_FILL_AREA(#359);
#359=FILL_AREA_STYLE('',(#360));
#360=FILL_AREA_STYLE_COLOUR('',#361);
#361=COLOUR_RGB('',0.749019607843137,0.749019607843137,0.749019607843137);
ENDSEC;
END-ISO-10303-21;
