ISO-10303-21;
HEADER;
/* Generated by software containing ST-Developer
 * from STEP Tools, Inc. (www.steptools.com) 
 */

FILE_DESCRIPTION(
/* description */ (''),
/* implementation_level */ '2;1');

FILE_NAME(
/* name */ 
'\\\\Tske00\\w\\Work\\TOSTE\\\X2\7D99624B\X0\\\02_\X2\6EB663A5\X0\\\\X2\6EB663A530A830EB30DC\X0\\\
D1(91.5\X\B0)\\D1(91.5\X\B0) 30.stp',
/* time_stamp */ '2022-04-13T15:45:32+09:00',
/* author */ ('3dcad-eng'),
/* organization */ (''),
/* preprocessor_version */ 'ST-DEVELOPER v18.1',
/* originating_system */ 'Autodesk Inventor 2022',
/* authorisation */ '');

FILE_SCHEMA (('AUTOMOTIVE_DESIGN { 1 0 10303 214 3 1 1 }'));
ENDSEC;

DATA;
#10=MECHANICAL_DESIGN_GEOMETRIC_PRESENTATION_REPRESENTATION('',(#16),#333);
#11=CONSTRUCTIVE_GEOMETRY_REPRESENTATION_RELATIONSHIP('CGRR','None',#340,
#12);
#12=CONSTRUCTIVE_GEOMETRY_REPRESENTATION('',(#13),#332);
#13=GEOMETRIC_CURVE_SET('\X2\30B930B130C330C1\X0\4',(#329));
#14=SHAPE_REPRESENTATION_RELATIONSHIP('SRR','None',#340,#15);
#15=ADVANCED_BREP_SHAPE_REPRESENTATION('',(#17),#332);
#16=STYLED_ITEM('',(#349),#17);
#17=MANIFOLD_SOLID_BREP('\X2\30BD30EA30C330C9\X0\5',#155);
#18=FACE_BOUND('',#37,.T.);
#19=FACE_BOUND('',#41,.T.);
#20=PLANE('',#191);
#21=PLANE('',#197);
#22=TOROIDAL_SURFACE('',#180,75.,36.15);
#23=TOROIDAL_SURFACE('',#192,75.,38.15);
#24=FACE_OUTER_BOUND('',#32,.T.);
#25=FACE_OUTER_BOUND('',#33,.T.);
#26=FACE_OUTER_BOUND('',#34,.T.);
#27=FACE_OUTER_BOUND('',#35,.T.);
#28=FACE_OUTER_BOUND('',#36,.T.);
#29=FACE_OUTER_BOUND('',#38,.T.);
#30=FACE_OUTER_BOUND('',#39,.T.);
#31=FACE_OUTER_BOUND('',#40,.T.);
#32=EDGE_LOOP('',(#101,#102,#103,#104,#105,#106,#107,#108));
#33=EDGE_LOOP('',(#109,#110,#111,#112,#113,#114));
#34=EDGE_LOOP('',(#115,#116,#117,#118));
#35=EDGE_LOOP('',(#119,#120,#121,#122,#123,#124,#125,#126,#127));
#36=EDGE_LOOP('',(#128));
#37=EDGE_LOOP('',(#129));
#38=EDGE_LOOP('',(#130,#131,#132,#133,#134,#135));
#39=EDGE_LOOP('',(#136,#137,#138,#139,#140));
#40=EDGE_LOOP('',(#141));
#41=EDGE_LOOP('',(#142));
#42=ELLIPSE('',#177,36.1530973235549,36.15);
#43=ELLIPSE('',#178,36.1530973235549,36.15);
#44=ELLIPSE('',#179,36.1530973235549,36.15);
#45=ELLIPSE('',#187,38.1532686830876,38.15);
#46=ELLIPSE('',#188,38.1532686830876,38.15);
#47=ELLIPSE('',#189,38.1532686830876,38.15);
#48=ELLIPSE('',#190,38.1532686830876,38.15);
#49=CIRCLE('',#176,36.15);
#50=CIRCLE('',#181,36.15);
#51=CIRCLE('',#182,38.85);
#52=CIRCLE('',#183,36.15);
#53=CIRCLE('',#186,38.15);
#54=CIRCLE('',#193,38.15);
#55=CIRCLE('',#194,36.85);
#56=CIRCLE('',#195,38.15);
#57=LINE('',#263,#59);
#58=LINE('',#291,#60);
#59=VECTOR('',#202,36.15);
#60=VECTOR('',#225,38.15);
#61=B_SPLINE_CURVE_WITH_KNOTS('',3,(#252,#253,#254,#255,#256,#257,#258,
#259,#260,#261),.UNSPECIFIED.,.F.,.F.,(4,2,2,2,4),(-4.08159126506962,-3.54619645813623,
-2.69837784919526,-2.30505035923238,-2.04226976964598),.UNSPECIFIED.);
#62=B_SPLINE_CURVE_WITH_KNOTS('',3,(#266,#267,#268,#269,#270,#271,#272,
#273,#274,#275),.UNSPECIFIED.,.F.,.F.,(4,2,2,2,4),(-2.04226976964598,-2.04135373643638,
-1.77729943132303,-1.38204502665618,0.),.UNSPECIFIED.);
#63=B_SPLINE_CURVE_WITH_KNOTS('',3,(#297,#298,#299,#300,#301,#302,#303,
#304,#305,#306),.UNSPECIFIED.,.F.,.F.,(4,2,2,2,4),(-2.45350867949001,-2.33938262768635,
-2.02310495586313,-1.4352460324781,0.),.UNSPECIFIED.);
#64=B_SPLINE_CURVE_WITH_KNOTS('',3,(#308,#309,#310,#311,#312,#313,#314,
#315,#316,#317),.UNSPECIFIED.,.F.,.F.,(4,2,2,2,4),(-4.90580912828414,-3.66400248540583,
-2.94418157219579,-2.60876969663979,-2.45350867949001),.UNSPECIFIED.);
#65=VERTEX_POINT('',#250);
#66=VERTEX_POINT('',#251);
#67=VERTEX_POINT('',#262);
#68=VERTEX_POINT('',#265);
#69=VERTEX_POINT('',#276);
#70=VERTEX_POINT('',#278);
#71=VERTEX_POINT('',#282);
#72=VERTEX_POINT('',#288);
#73=VERTEX_POINT('',#290);
#74=VERTEX_POINT('',#292);
#75=VERTEX_POINT('',#294);
#76=VERTEX_POINT('',#296);
#77=VERTEX_POINT('',#307);
#78=VERTEX_POINT('',#318);
#79=VERTEX_POINT('',#324);
#80=EDGE_CURVE('',#65,#66,#61,.T.);
#81=EDGE_CURVE('',#66,#67,#57,.T.);
#82=EDGE_CURVE('',#67,#67,#49,.T.);
#83=EDGE_CURVE('',#66,#68,#62,.T.);
#84=EDGE_CURVE('',#68,#69,#42,.T.);
#85=EDGE_CURVE('',#69,#70,#43,.T.);
#86=EDGE_CURVE('',#70,#65,#44,.T.);
#87=EDGE_CURVE('',#71,#71,#50,.T.);
#88=EDGE_CURVE('',#71,#66,#51,.T.);
#89=EDGE_CURVE('',#65,#68,#52,.T.);
#90=EDGE_CURVE('',#72,#72,#53,.T.);
#91=EDGE_CURVE('',#72,#73,#58,.T.);
#92=EDGE_CURVE('',#74,#73,#45,.T.);
#93=EDGE_CURVE('',#75,#74,#46,.T.);
#94=EDGE_CURVE('',#76,#75,#63,.T.);
#95=EDGE_CURVE('',#77,#76,#64,.T.);
#96=EDGE_CURVE('',#78,#77,#47,.T.);
#97=EDGE_CURVE('',#73,#78,#48,.T.);
#98=EDGE_CURVE('',#77,#75,#54,.T.);
#99=EDGE_CURVE('',#76,#79,#55,.T.);
#100=EDGE_CURVE('',#79,#79,#56,.T.);
#101=ORIENTED_EDGE('',*,*,#80,.T.);
#102=ORIENTED_EDGE('',*,*,#81,.T.);
#103=ORIENTED_EDGE('',*,*,#82,.F.);
#104=ORIENTED_EDGE('',*,*,#81,.F.);
#105=ORIENTED_EDGE('',*,*,#83,.T.);
#106=ORIENTED_EDGE('',*,*,#84,.T.);
#107=ORIENTED_EDGE('',*,*,#85,.T.);
#108=ORIENTED_EDGE('',*,*,#86,.T.);
#109=ORIENTED_EDGE('',*,*,#87,.F.);
#110=ORIENTED_EDGE('',*,*,#88,.T.);
#111=ORIENTED_EDGE('',*,*,#80,.F.);
#112=ORIENTED_EDGE('',*,*,#89,.T.);
#113=ORIENTED_EDGE('',*,*,#83,.F.);
#114=ORIENTED_EDGE('',*,*,#88,.F.);
#115=ORIENTED_EDGE('',*,*,#86,.F.);
#116=ORIENTED_EDGE('',*,*,#85,.F.);
#117=ORIENTED_EDGE('',*,*,#84,.F.);
#118=ORIENTED_EDGE('',*,*,#89,.F.);
#119=ORIENTED_EDGE('',*,*,#90,.F.);
#120=ORIENTED_EDGE('',*,*,#91,.T.);
#121=ORIENTED_EDGE('',*,*,#92,.F.);
#122=ORIENTED_EDGE('',*,*,#93,.F.);
#123=ORIENTED_EDGE('',*,*,#94,.F.);
#124=ORIENTED_EDGE('',*,*,#95,.F.);
#125=ORIENTED_EDGE('',*,*,#96,.F.);
#126=ORIENTED_EDGE('',*,*,#97,.F.);
#127=ORIENTED_EDGE('',*,*,#91,.F.);
#128=ORIENTED_EDGE('',*,*,#90,.T.);
#129=ORIENTED_EDGE('',*,*,#82,.T.);
#130=ORIENTED_EDGE('',*,*,#94,.T.);
#131=ORIENTED_EDGE('',*,*,#98,.F.);
#132=ORIENTED_EDGE('',*,*,#95,.T.);
#133=ORIENTED_EDGE('',*,*,#99,.T.);
#134=ORIENTED_EDGE('',*,*,#100,.T.);
#135=ORIENTED_EDGE('',*,*,#99,.F.);
#136=ORIENTED_EDGE('',*,*,#96,.T.);
#137=ORIENTED_EDGE('',*,*,#98,.T.);
#138=ORIENTED_EDGE('',*,*,#93,.T.);
#139=ORIENTED_EDGE('',*,*,#92,.T.);
#140=ORIENTED_EDGE('',*,*,#97,.T.);
#141=ORIENTED_EDGE('',*,*,#100,.F.);
#142=ORIENTED_EDGE('',*,*,#87,.T.);
#143=CYLINDRICAL_SURFACE('',#175,36.15);
#144=CYLINDRICAL_SURFACE('',#184,36.15);
#145=CYLINDRICAL_SURFACE('',#185,38.15);
#146=CYLINDRICAL_SURFACE('',#196,38.15);
#147=ADVANCED_FACE('',(#24),#143,.F.);
#148=ADVANCED_FACE('',(#25),#22,.F.);
#149=ADVANCED_FACE('',(#26),#144,.F.);
#150=ADVANCED_FACE('',(#27),#145,.T.);
#151=ADVANCED_FACE('',(#28,#18),#20,.T.);
#152=ADVANCED_FACE('',(#29),#23,.T.);
#153=ADVANCED_FACE('',(#30),#146,.T.);
#154=ADVANCED_FACE('',(#31,#19),#21,.F.);
#155=CLOSED_SHELL('',(#147,#148,#149,#150,#151,#152,#153,#154));
#156=DERIVED_UNIT_ELEMENT(#158,1.);
#157=DERIVED_UNIT_ELEMENT(#335,-3.);
#158=(
MASS_UNIT()
NAMED_UNIT(*)
SI_UNIT($,.GRAM.)
);
#159=DERIVED_UNIT((#156,#157));
#160=MEASURE_REPRESENTATION_ITEM('density measure',
POSITIVE_RATIO_MEASURE(1.),#159);
#161=PROPERTY_DEFINITION_REPRESENTATION(#166,#163);
#162=PROPERTY_DEFINITION_REPRESENTATION(#167,#164);
#163=REPRESENTATION('material name',(#165),#332);
#164=REPRESENTATION('density',(#160),#332);
#165=DESCRIPTIVE_REPRESENTATION_ITEM('\X2\4E00822C\X0\','\X2\4E00822C\X0\');
#166=PROPERTY_DEFINITION('material property','material name',#342);
#167=PROPERTY_DEFINITION('material property','density of part',#342);
#168=DATE_TIME_ROLE('creation_date');
#169=APPLIED_DATE_AND_TIME_ASSIGNMENT(#170,#168,(#342));
#170=DATE_AND_TIME(#171,#172);
#171=CALENDAR_DATE(2022,13,4);
#172=LOCAL_TIME(0,0,0.,#173);
#173=COORDINATED_UNIVERSAL_TIME_OFFSET(0,0,.BEHIND.);
#174=AXIS2_PLACEMENT_3D('placement',#248,#198,#199);
#175=AXIS2_PLACEMENT_3D('',#249,#200,#201);
#176=AXIS2_PLACEMENT_3D('',#264,#203,#204);
#177=AXIS2_PLACEMENT_3D('',#277,#205,#206);
#178=AXIS2_PLACEMENT_3D('',#279,#207,#208);
#179=AXIS2_PLACEMENT_3D('',#280,#209,#210);
#180=AXIS2_PLACEMENT_3D('',#281,#211,#212);
#181=AXIS2_PLACEMENT_3D('',#283,#213,#214);
#182=AXIS2_PLACEMENT_3D('',#284,#215,#216);
#183=AXIS2_PLACEMENT_3D('',#285,#217,#218);
#184=AXIS2_PLACEMENT_3D('',#286,#219,#220);
#185=AXIS2_PLACEMENT_3D('',#287,#221,#222);
#186=AXIS2_PLACEMENT_3D('',#289,#223,#224);
#187=AXIS2_PLACEMENT_3D('',#293,#226,#227);
#188=AXIS2_PLACEMENT_3D('',#295,#228,#229);
#189=AXIS2_PLACEMENT_3D('',#319,#230,#231);
#190=AXIS2_PLACEMENT_3D('',#320,#232,#233);
#191=AXIS2_PLACEMENT_3D('',#321,#234,#235);
#192=AXIS2_PLACEMENT_3D('',#322,#236,#237);
#193=AXIS2_PLACEMENT_3D('',#323,#238,#239);
#194=AXIS2_PLACEMENT_3D('',#325,#240,#241);
#195=AXIS2_PLACEMENT_3D('',#326,#242,#243);
#196=AXIS2_PLACEMENT_3D('',#327,#244,#245);
#197=AXIS2_PLACEMENT_3D('',#328,#246,#247);
#198=DIRECTION('axis',(0.,0.,1.));
#199=DIRECTION('refdir',(1.,0.,0.));
#200=DIRECTION('center_axis',(-0.999657324975557,-0.0261769483078737,0.));
#201=DIRECTION('ref_axis',(-0.0261769483078737,0.999657324975557,0.));
#202=DIRECTION('',(-0.999657324975557,-0.0261769483078737,0.));
#203=DIRECTION('center_axis',(0.999657324975557,0.0261769483078737,0.));
#204=DIRECTION('ref_axis',(-0.0261769483078737,0.999657324975557,0.));
#205=DIRECTION('center_axis',(0.999914327574007,0.0130895955713452,0.));
#206=DIRECTION('ref_axis',(-0.0130895955713452,0.999914327574007,0.));
#207=DIRECTION('center_axis',(0.999914327574007,0.0130895955713448,0.));
#208=DIRECTION('ref_axis',(-0.0130895955713448,0.999914327574007,0.));
#209=DIRECTION('center_axis',(0.999914327574007,0.0130895955713452,0.));
#210=DIRECTION('ref_axis',(-0.0130895955713452,0.999914327574007,0.));
#211=DIRECTION('center_axis',(0.,0.,1.));
#212=DIRECTION('ref_axis',(1.,0.,0.));
#213=DIRECTION('center_axis',(0.,1.,0.));
#214=DIRECTION('ref_axis',(1.,0.,0.));
#215=DIRECTION('center_axis',(0.,0.,1.));
#216=DIRECTION('ref_axis',(1.,0.,0.));
#217=DIRECTION('center_axis',(-1.,-1.60812264967664E-16,0.));
#218=DIRECTION('ref_axis',(-1.60812264967664E-16,1.,0.));
#219=DIRECTION('center_axis',(-1.,-1.22464679914737E-16,0.));
#220=DIRECTION('ref_axis',(-1.22464679914737E-16,1.,0.));
#221=DIRECTION('center_axis',(-0.999657324975557,-0.0261769483078737,0.));
#222=DIRECTION('ref_axis',(0.0261769483078737,-0.999657324975557,0.));
#223=DIRECTION('center_axis',(-0.999657324975557,-0.0261769483078737,0.));
#224=DIRECTION('ref_axis',(0.0261769483078737,-0.999657324975557,0.));
#225=DIRECTION('',(0.999657324975557,0.0261769483078737,0.));
#226=DIRECTION('center_axis',(0.999914327574007,0.0130895955713448,0.));
#227=DIRECTION('ref_axis',(0.0130895955713448,-0.999914327574007,0.));
#228=DIRECTION('center_axis',(0.999914327574007,0.0130895955713449,0.));
#229=DIRECTION('ref_axis',(0.0130895955713449,-0.999914327574007,0.));
#230=DIRECTION('center_axis',(0.999914327574007,0.0130895955713449,0.));
#231=DIRECTION('ref_axis',(0.0130895955713449,-0.999914327574007,0.));
#232=DIRECTION('center_axis',(0.999914327574007,0.0130895955713448,0.));
#233=DIRECTION('ref_axis',(0.0130895955713448,-0.999914327574007,0.));
#234=DIRECTION('center_axis',(-0.999657324975557,-0.0261769483078737,0.));
#235=DIRECTION('ref_axis',(0.,0.,1.));
#236=DIRECTION('center_axis',(0.,0.,1.));
#237=DIRECTION('ref_axis',(1.,0.,0.));
#238=DIRECTION('center_axis',(-1.,-1.60812264967664E-16,0.));
#239=DIRECTION('ref_axis',(1.60812264967664E-16,-1.,0.));
#240=DIRECTION('center_axis',(0.,0.,-1.));
#241=DIRECTION('ref_axis',(1.,0.,0.));
#242=DIRECTION('center_axis',(0.,1.,0.));
#243=DIRECTION('ref_axis',(-1.,0.,0.));
#244=DIRECTION('center_axis',(-1.,-1.22464679914737E-16,0.));
#245=DIRECTION('ref_axis',(-1.22464679914737E-16,1.,1.22464679914735E-16));
#246=DIRECTION('center_axis',(0.,1.,0.));
#247=DIRECTION('ref_axis',(0.,0.,1.));
#248=CARTESIAN_POINT('',(0.,0.,0.));
#249=CARTESIAN_POINT('Origin',(-75.4,-9.43689570931383E-15,0.));
#250=CARTESIAN_POINT('',(-75.,-30.5560037244519,19.3171720598871));
#251=CARTESIAN_POINT('',(-74.9292319954214,-36.1500644544997,4.42709817891768E-15));
#252=CARTESIAN_POINT('Ctrl Pts',(-75.0000000000003,-30.5560037244498,19.3171720598903));
#253=CARTESIAN_POINT('Ctrl Pts',(-74.987516370608,-31.5096282899644,17.8087237380941));
#254=CARTESIAN_POINT('Ctrl Pts',(-74.9767125881839,-32.3502543369272,16.2317208423316));
#255=CARTESIAN_POINT('Ctrl Pts',(-74.9530579552174,-34.2122712599663,12.0137850458653));
#256=CARTESIAN_POINT('Ctrl Pts',(-74.9427587527407,-35.046489309809,9.30352025933495));
#257=CARTESIAN_POINT('Ctrl Pts',(-74.9335859767033,-35.793120660185,5.234307961712));
#258=CARTESIAN_POINT('Ctrl Pts',(-74.9315566712197,-35.9594025672735,3.93282833627171));
#259=CARTESIAN_POINT('Ctrl Pts',(-74.9296194936991,-36.118227231211,1.75157749684642));
#260=CARTESIAN_POINT('Ctrl Pts',(-74.9292319954214,-36.1500644544997,0.875933046286398));
#261=CARTESIAN_POINT('Ctrl Pts',(-74.9292319954214,-36.1500644544997,4.16333634234434E-15));
#262=CARTESIAN_POINT('',(-75.5537033186704,-36.1664168115925,4.42709817891768E-15));
#263=CARTESIAN_POINT('',(-74.4537033186704,-36.1376122978664,4.42709817891768E-15));
#264=CARTESIAN_POINT('Origin',(-76.5,-0.0288045137261159,0.));
#265=CARTESIAN_POINT('',(-75.,-30.5560037244519,-19.3171720598871));
#266=CARTESIAN_POINT('Ctrl Pts',(-74.9292319954215,-36.1500644544997,4.42709817891768E-15));
#267=CARTESIAN_POINT('Ctrl Pts',(-74.9292319954215,-36.1500644544997,-0.00305343618054638));
#268=CARTESIAN_POINT('Ctrl Pts',(-74.9292320001335,-36.1500640676244,-0.00610687586801724));
#269=CARTESIAN_POINT('Ctrl Pts',(-74.9292347261483,-36.1498402529582,-0.889341073406788));
#270=CARTESIAN_POINT('Ctrl Pts',(-74.9296287048551,-36.1174705337706,-1.76921983816607));
#271=CARTESIAN_POINT('Ctrl Pts',(-74.931591571633,-35.9565434504028,-3.96101417912565));
#272=CARTESIAN_POINT('Ctrl Pts',(-74.9336448274026,-35.7883052665172,-5.26873301821403));
#273=CARTESIAN_POINT('Ctrl Pts',(-74.9468629774907,-34.7125097598929,-11.0945525686967));
#274=CARTESIAN_POINT('Ctrl Pts',(-74.9677752916108,-33.0176494983597,-15.4233279090663));
#275=CARTESIAN_POINT('Ctrl Pts',(-75.0000000000001,-30.5560037244498,-19.3171720598903));
#276=CARTESIAN_POINT('',(-75.4,-7.47549486648422E-13,-36.15));
#277=CARTESIAN_POINT('Origin',(-75.4,-8.9717094748496E-15,0.));
#278=CARTESIAN_POINT('',(-75.4,-7.47549486648422E-13,36.15));
#279=CARTESIAN_POINT('Origin',(-75.4,-8.9717094748496E-15,0.));
#280=CARTESIAN_POINT('Origin',(-75.4,-8.9717094748496E-15,0.));
#281=CARTESIAN_POINT('Origin',(-75.,-75.,0.));
#282=CARTESIAN_POINT('',(-36.15,-75.,4.42709817891768E-15));
#283=CARTESIAN_POINT('Origin',(0.,-75.,0.));
#284=CARTESIAN_POINT('Origin',(-75.,-75.,-4.42709817891768E-15));
#285=CARTESIAN_POINT('Origin',(-75.,-8.88178419700126E-15,0.));
#286=CARTESIAN_POINT('Origin',(-75.,-8.88178419700126E-15,0.));
#287=CARTESIAN_POINT('Origin',(-75.4,-9.43689570931383E-15,0.));
#288=CARTESIAN_POINT('',(-77.4986505779454,38.1081224340914,-4.67202753874715E-15));
#289=CARTESIAN_POINT('Origin',(-76.5,-0.0288045137261159,0.));
#290=CARTESIAN_POINT('',(-75.8994108567865,38.15,-4.67202753874715E-15));
#291=CARTESIAN_POINT('',(-76.3986505779454,38.1369269478175,-4.67202753874715E-15));
#292=CARTESIAN_POINT('',(-75.4,-7.4754948664843E-13,-38.15));
#293=CARTESIAN_POINT('Origin',(-75.4,-8.9717094748496E-15,0.));
#294=CARTESIAN_POINT('',(-75.,-30.5560037244471,-22.8419162154049));
#295=CARTESIAN_POINT('Origin',(-75.4,-8.9717094748496E-15,0.));
#296=CARTESIAN_POINT('',(-74.9052417800514,-38.1501218335833,0.));
#297=CARTESIAN_POINT('Ctrl Pts',(-74.9052417800516,-38.1501218335833,6.93889390390723E-17));
#298=CARTESIAN_POINT('Ctrl Pts',(-74.9052417800516,-38.1501218335833,-0.380362071357255));
#299=CARTESIAN_POINT('Ctrl Pts',(-74.9053089233538,-38.1444332290345,-0.760731811947558));
#300=CARTESIAN_POINT('Ctrl Pts',(-74.9058156034104,-38.1015237532167,-2.19476832376977));
#301=CARTESIAN_POINT('Ctrl Pts',(-74.9067033302458,-38.0263228848541,-3.24679455400232));
#302=CARTESIAN_POINT('Ctrl Pts',(-74.9107241595658,-37.687065643292,-6.24142343722969));
#303=CARTESIAN_POINT('Ctrl Pts',(-74.9151211718649,-37.3167948575341,-8.16860472912773));
#304=CARTESIAN_POINT('Ctrl Pts',(-74.9365670970983,-35.5386935830611,-14.6736117578732));
#305=CARTESIAN_POINT('Ctrl Pts',(-74.9625032877863,-33.4203779196008,-19.0101961552306));
#306=CARTESIAN_POINT('Ctrl Pts',(-75.,-30.5560037244546,-22.8419162153949));
#307=CARTESIAN_POINT('',(-75.,-30.5560037244471,22.8419162154049));
#308=CARTESIAN_POINT('Ctrl Pts',(-75.,-30.5560037244545,22.8419162153949));
#309=CARTESIAN_POINT('Ctrl Pts',(-74.9675570178755,-33.0343234310311,19.5266275386286));
#310=CARTESIAN_POINT('Ctrl Pts',(-74.9437449345658,-34.9567092148241,15.8299519157231));
#311=CARTESIAN_POINT('Ctrl Pts',(-74.9189445781771,-36.9958470545835,9.61733376404872));
#312=CARTESIAN_POINT('Ctrl Pts',(-74.9126215851676,-37.5273766926179,7.27208605524301));
#313=CARTESIAN_POINT('Ctrl Pts',(-74.9072688541227,-37.9784803808701,3.78369556343963));
#314=CARTESIAN_POINT('Ctrl Pts',(-74.906151936746,-38.0730531561559,2.66912245358719));
#315=CARTESIAN_POINT('Ctrl Pts',(-74.9053660328029,-38.1395934660273,1.03490116750291));
#316=CARTESIAN_POINT('Ctrl Pts',(-74.9052417800515,-38.1501218335833,0.517457680790709));
#317=CARTESIAN_POINT('Ctrl Pts',(-74.9052417800515,-38.1501218335833,1.38777878078145E-16));
#318=CARTESIAN_POINT('',(-75.4,-7.4754948664843E-13,38.15));
#319=CARTESIAN_POINT('Origin',(-75.4,-8.9717094748496E-15,0.));
#320=CARTESIAN_POINT('Origin',(-75.4,-8.9717094748496E-15,0.));
#321=CARTESIAN_POINT('Origin',(-76.5,-0.0288045137261159,0.));
#322=CARTESIAN_POINT('Origin',(-75.,-75.,0.));
#323=CARTESIAN_POINT('Origin',(-75.,-8.88178419700126E-15,0.));
#324=CARTESIAN_POINT('',(-38.15,-75.,0.));
#325=CARTESIAN_POINT('Origin',(-75.,-75.,-4.67202753874715E-15));
#326=CARTESIAN_POINT('Origin',(0.,-75.,0.));
#327=CARTESIAN_POINT('Origin',(-75.,-8.88178419700126E-15,0.));
#328=CARTESIAN_POINT('Origin',(0.,-75.,0.));
#329=CARTESIAN_POINT('',(0.,0.,0.));
#330=UNCERTAINTY_MEASURE_WITH_UNIT(LENGTH_MEASURE(0.01),#334,
'DISTANCE_ACCURACY_VALUE',
'Maximum model space distance between geometric entities at asserted c
onnectivities');
#331=UNCERTAINTY_MEASURE_WITH_UNIT(LENGTH_MEASURE(0.01),#334,
'DISTANCE_ACCURACY_VALUE',
'Maximum model space distance between geometric entities at asserted c
onnectivities');
#332=(
GEOMETRIC_REPRESENTATION_CONTEXT(3)
GLOBAL_UNCERTAINTY_ASSIGNED_CONTEXT((#330))
GLOBAL_UNIT_ASSIGNED_CONTEXT((#334,#336,#337))
REPRESENTATION_CONTEXT('','3D')
);
#333=(
GEOMETRIC_REPRESENTATION_CONTEXT(3)
GLOBAL_UNCERTAINTY_ASSIGNED_CONTEXT((#331))
GLOBAL_UNIT_ASSIGNED_CONTEXT((#334,#336,#337))
REPRESENTATION_CONTEXT('','3D')
);
#334=(
LENGTH_UNIT()
NAMED_UNIT(*)
SI_UNIT(.MILLI.,.METRE.)
);
#335=(
LENGTH_UNIT()
NAMED_UNIT(*)
SI_UNIT(.CENTI.,.METRE.)
);
#336=(
NAMED_UNIT(*)
PLANE_ANGLE_UNIT()
SI_UNIT($,.RADIAN.)
);
#337=(
NAMED_UNIT(*)
SI_UNIT($,.STERADIAN.)
SOLID_ANGLE_UNIT()
);
#338=SHAPE_DEFINITION_REPRESENTATION(#339,#340);
#339=PRODUCT_DEFINITION_SHAPE('',$,#342);
#340=SHAPE_REPRESENTATION('',(#174),#332);
#341=PRODUCT_DEFINITION_CONTEXT('part definition',#346,'design');
#342=PRODUCT_DEFINITION('D1(91.5\X\B0) 03','D1(91.5\X\B0) 30',#343,#341);
#343=PRODUCT_DEFINITION_FORMATION('',$,#348);
#344=PRODUCT_RELATED_PRODUCT_CATEGORY('D1(91.5\X\B0) 30',
'D1(91.5\X\B0) 30',(#348));
#345=APPLICATION_PROTOCOL_DEFINITION('international standard',
'automotive_design',2009,#346);
#346=APPLICATION_CONTEXT(
'Core Data for Automotive Mechanical Design Process');
#347=PRODUCT_CONTEXT('part definition',#346,'mechanical');
#348=PRODUCT('D1(91.5\X\B0) 03','D1(91.5\X\B0) 30',$,(#347));
#349=PRESENTATION_STYLE_ASSIGNMENT((#350));
#350=SURFACE_STYLE_USAGE(.BOTH.,#353);
#351=SURFACE_STYLE_RENDERING_WITH_PROPERTIES($,#357,(#352));
#352=SURFACE_STYLE_TRANSPARENT(0.);
#353=SURFACE_SIDE_STYLE('',(#354,#351));
#354=SURFACE_STYLE_FILL_AREA(#355);
#355=FILL_AREA_STYLE('',(#356));
#356=FILL_AREA_STYLE_COLOUR('',#357);
#357=COLOUR_RGB('',0.749019607843137,0.749019607843137,0.749019607843137);
ENDSEC;
END-ISO-10303-21;
