ISO-10303-21;
HEADER;
/* Generated by software containing ST-Developer
 * from STEP Tools, Inc. (www.steptools.com) 
 */

FILE_DESCRIPTION(
/* description */ (''),
/* implementation_level */ '2;1');

FILE_NAME(
/* name */ 
'\\\\Tske00\\w\\Work\\TOSTE\\\X2\7D99624B\X0\\\02_\X2\6EB663A5\X0\\\\X2\6EB663A530A830EB30DC\X0\\\
D1(91.5\X\B0)\\D1(91.5\X\B0) 25.stp',
/* time_stamp */ '2022-04-13T15:45:31+09:00',
/* author */ ('3dcad-eng'),
/* organization */ (''),
/* preprocessor_version */ 'ST-DEVELOPER v18.1',
/* originating_system */ 'Autodesk Inventor 2022',
/* authorisation */ '');

FILE_SCHEMA (('AUTOMOTIVE_DESIGN { 1 0 10303 214 3 1 1 }'));
ENDSEC;

DATA;
#10=MECHANICAL_DESIGN_GEOMETRIC_PRESENTATION_REPRESENTATION('',(#16),#308);
#11=CONSTRUCTIVE_GEOMETRY_REPRESENTATION_RELATIONSHIP('CGRR','None',#315,
#12);
#12=CONSTRUCTIVE_GEOMETRY_REPRESENTATION('',(#13),#307);
#13=GEOMETRIC_CURVE_SET('\X2\30B930B130C330C1\X0\4',(#304));
#14=SHAPE_REPRESENTATION_RELATIONSHIP('SRR','None',#315,#15);
#15=ADVANCED_BREP_SHAPE_REPRESENTATION('',(#17),#307);
#16=STYLED_ITEM('',(#324),#17);
#17=MANIFOLD_SOLID_BREP('\X2\30BD30EA30C330C9\X0\5',#151);
#18=FACE_BOUND('',#39,.T.);
#19=FACE_BOUND('',#43,.T.);
#20=PLANE('',#187);
#21=PLANE('',#193);
#22=B_SPLINE_CURVE_WITH_KNOTS('',3,(#274,#275,#276,#277,#278,#279,#280,
#281),.UNSPECIFIED.,.F.,.F.,(4,2,2,4),(-0.873792955399502,-0.754804950905695,
-0.496072053342106,0.),.UNSPECIFIED.);
#23=B_SPLINE_CURVE_WITH_KNOTS('',3,(#283,#284,#285,#286,#287,#288,#289,
#290,#291,#292),.UNSPECIFIED.,.F.,.F.,(4,2,2,2,4),(-1.74751512031023,-1.66145709382664,
-1.21111532801705,-0.96484890531175,-0.873792955399502),.UNSPECIFIED.);
#24=TOROIDAL_SURFACE('',#178,75.,29.75);
#25=TOROIDAL_SURFACE('',#188,75.,31.75);
#26=FACE_OUTER_BOUND('',#34,.T.);
#27=FACE_OUTER_BOUND('',#35,.T.);
#28=FACE_OUTER_BOUND('',#36,.T.);
#29=FACE_OUTER_BOUND('',#37,.T.);
#30=FACE_OUTER_BOUND('',#38,.T.);
#31=FACE_OUTER_BOUND('',#40,.T.);
#32=FACE_OUTER_BOUND('',#41,.T.);
#33=FACE_OUTER_BOUND('',#42,.T.);
#34=EDGE_LOOP('',(#99,#100,#101,#102,#103,#104));
#35=EDGE_LOOP('',(#105,#106,#107,#108,#109,#110));
#36=EDGE_LOOP('',(#111,#112,#113,#114));
#37=EDGE_LOOP('',(#115,#116,#117,#118,#119,#120,#121,#122,#123));
#38=EDGE_LOOP('',(#124));
#39=EDGE_LOOP('',(#125));
#40=EDGE_LOOP('',(#126,#127,#128,#129,#130,#131));
#41=EDGE_LOOP('',(#132,#133,#134,#135,#136));
#42=EDGE_LOOP('',(#137));
#43=EDGE_LOOP('',(#138));
#44=CIRCLE('',#173,29.75);
#45=CIRCLE('',#177,29.75);
#46=CIRCLE('',#179,29.75);
#47=CIRCLE('',#180,45.25);
#48=CIRCLE('',#182,31.75);
#49=CIRCLE('',#189,31.75);
#50=CIRCLE('',#190,43.25);
#51=CIRCLE('',#191,31.75);
#52=LINE('',#251,#55);
#53=LINE('',#259,#56);
#54=LINE('',#268,#57);
#55=VECTOR('',#200,29.75);
#56=VECTOR('',#211,29.75);
#57=VECTOR('',#222,31.75);
#58=ELLIPSE('',#172,29.75254897305,29.75);
#59=ELLIPSE('',#174,29.75254897305,29.75);
#60=ELLIPSE('',#175,29.75254897305,29.75);
#61=ELLIPSE('',#183,31.7527203325828,31.75);
#62=ELLIPSE('',#184,31.7527203325828,31.75);
#63=ELLIPSE('',#185,31.7527203325828,31.75);
#64=ELLIPSE('',#186,31.7527203325828,31.75);
#65=VERTEX_POINT('',#247);
#66=VERTEX_POINT('',#248);
#67=VERTEX_POINT('',#250);
#68=VERTEX_POINT('',#253);
#69=VERTEX_POINT('',#257);
#70=VERTEX_POINT('',#261);
#71=VERTEX_POINT('',#265);
#72=VERTEX_POINT('',#267);
#73=VERTEX_POINT('',#269);
#74=VERTEX_POINT('',#271);
#75=VERTEX_POINT('',#273);
#76=VERTEX_POINT('',#282);
#77=VERTEX_POINT('',#293);
#78=VERTEX_POINT('',#299);
#79=EDGE_CURVE('',#65,#66,#58,.T.);
#80=EDGE_CURVE('',#66,#67,#52,.T.);
#81=EDGE_CURVE('',#67,#67,#44,.T.);
#82=EDGE_CURVE('',#66,#68,#59,.T.);
#83=EDGE_CURVE('',#68,#65,#60,.T.);
#84=EDGE_CURVE('',#69,#69,#45,.T.);
#85=EDGE_CURVE('',#69,#66,#53,.T.);
#86=EDGE_CURVE('',#70,#70,#46,.T.);
#87=EDGE_CURVE('',#70,#69,#47,.T.);
#88=EDGE_CURVE('',#71,#71,#48,.T.);
#89=EDGE_CURVE('',#71,#72,#54,.T.);
#90=EDGE_CURVE('',#73,#72,#61,.T.);
#91=EDGE_CURVE('',#74,#73,#62,.T.);
#92=EDGE_CURVE('',#75,#74,#22,.T.);
#93=EDGE_CURVE('',#76,#75,#23,.T.);
#94=EDGE_CURVE('',#77,#76,#63,.T.);
#95=EDGE_CURVE('',#72,#77,#64,.T.);
#96=EDGE_CURVE('',#76,#74,#49,.T.);
#97=EDGE_CURVE('',#75,#78,#50,.T.);
#98=EDGE_CURVE('',#78,#78,#51,.T.);
#99=ORIENTED_EDGE('',*,*,#79,.T.);
#100=ORIENTED_EDGE('',*,*,#80,.T.);
#101=ORIENTED_EDGE('',*,*,#81,.F.);
#102=ORIENTED_EDGE('',*,*,#80,.F.);
#103=ORIENTED_EDGE('',*,*,#82,.T.);
#104=ORIENTED_EDGE('',*,*,#83,.T.);
#105=ORIENTED_EDGE('',*,*,#84,.F.);
#106=ORIENTED_EDGE('',*,*,#85,.T.);
#107=ORIENTED_EDGE('',*,*,#79,.F.);
#108=ORIENTED_EDGE('',*,*,#83,.F.);
#109=ORIENTED_EDGE('',*,*,#82,.F.);
#110=ORIENTED_EDGE('',*,*,#85,.F.);
#111=ORIENTED_EDGE('',*,*,#86,.F.);
#112=ORIENTED_EDGE('',*,*,#87,.T.);
#113=ORIENTED_EDGE('',*,*,#84,.T.);
#114=ORIENTED_EDGE('',*,*,#87,.F.);
#115=ORIENTED_EDGE('',*,*,#88,.F.);
#116=ORIENTED_EDGE('',*,*,#89,.T.);
#117=ORIENTED_EDGE('',*,*,#90,.F.);
#118=ORIENTED_EDGE('',*,*,#91,.F.);
#119=ORIENTED_EDGE('',*,*,#92,.F.);
#120=ORIENTED_EDGE('',*,*,#93,.F.);
#121=ORIENTED_EDGE('',*,*,#94,.F.);
#122=ORIENTED_EDGE('',*,*,#95,.F.);
#123=ORIENTED_EDGE('',*,*,#89,.F.);
#124=ORIENTED_EDGE('',*,*,#88,.T.);
#125=ORIENTED_EDGE('',*,*,#81,.T.);
#126=ORIENTED_EDGE('',*,*,#92,.T.);
#127=ORIENTED_EDGE('',*,*,#96,.F.);
#128=ORIENTED_EDGE('',*,*,#93,.T.);
#129=ORIENTED_EDGE('',*,*,#97,.T.);
#130=ORIENTED_EDGE('',*,*,#98,.T.);
#131=ORIENTED_EDGE('',*,*,#97,.F.);
#132=ORIENTED_EDGE('',*,*,#94,.T.);
#133=ORIENTED_EDGE('',*,*,#96,.T.);
#134=ORIENTED_EDGE('',*,*,#91,.T.);
#135=ORIENTED_EDGE('',*,*,#90,.T.);
#136=ORIENTED_EDGE('',*,*,#95,.T.);
#137=ORIENTED_EDGE('',*,*,#98,.F.);
#138=ORIENTED_EDGE('',*,*,#86,.T.);
#139=CYLINDRICAL_SURFACE('',#171,29.75);
#140=CYLINDRICAL_SURFACE('',#176,29.75);
#141=CYLINDRICAL_SURFACE('',#181,31.75);
#142=CYLINDRICAL_SURFACE('',#192,31.75);
#143=ADVANCED_FACE('',(#26),#139,.F.);
#144=ADVANCED_FACE('',(#27),#140,.F.);
#145=ADVANCED_FACE('',(#28),#24,.F.);
#146=ADVANCED_FACE('',(#29),#141,.T.);
#147=ADVANCED_FACE('',(#30,#18),#20,.T.);
#148=ADVANCED_FACE('',(#31),#25,.T.);
#149=ADVANCED_FACE('',(#32),#142,.T.);
#150=ADVANCED_FACE('',(#33,#19),#21,.F.);
#151=CLOSED_SHELL('',(#143,#144,#145,#146,#147,#148,#149,#150));
#152=DERIVED_UNIT_ELEMENT(#154,1.);
#153=DERIVED_UNIT_ELEMENT(#310,-3.);
#154=(
MASS_UNIT()
NAMED_UNIT(*)
SI_UNIT($,.GRAM.)
);
#155=DERIVED_UNIT((#152,#153));
#156=MEASURE_REPRESENTATION_ITEM('density measure',
POSITIVE_RATIO_MEASURE(1.),#155);
#157=PROPERTY_DEFINITION_REPRESENTATION(#162,#159);
#158=PROPERTY_DEFINITION_REPRESENTATION(#163,#160);
#159=REPRESENTATION('material name',(#161),#307);
#160=REPRESENTATION('density',(#156),#307);
#161=DESCRIPTIVE_REPRESENTATION_ITEM('\X2\4E00822C\X0\','\X2\4E00822C\X0\');
#162=PROPERTY_DEFINITION('material property','material name',#317);
#163=PROPERTY_DEFINITION('material property','density of part',#317);
#164=DATE_TIME_ROLE('creation_date');
#165=APPLIED_DATE_AND_TIME_ASSIGNMENT(#166,#164,(#317));
#166=DATE_AND_TIME(#167,#168);
#167=CALENDAR_DATE(2022,13,4);
#168=LOCAL_TIME(0,0,0.,#169);
#169=COORDINATED_UNIVERSAL_TIME_OFFSET(0,0,.BEHIND.);
#170=AXIS2_PLACEMENT_3D('placement',#245,#194,#195);
#171=AXIS2_PLACEMENT_3D('',#246,#196,#197);
#172=AXIS2_PLACEMENT_3D('',#249,#198,#199);
#173=AXIS2_PLACEMENT_3D('',#252,#201,#202);
#174=AXIS2_PLACEMENT_3D('',#254,#203,#204);
#175=AXIS2_PLACEMENT_3D('',#255,#205,#206);
#176=AXIS2_PLACEMENT_3D('',#256,#207,#208);
#177=AXIS2_PLACEMENT_3D('',#258,#209,#210);
#178=AXIS2_PLACEMENT_3D('',#260,#212,#213);
#179=AXIS2_PLACEMENT_3D('',#262,#214,#215);
#180=AXIS2_PLACEMENT_3D('',#263,#216,#217);
#181=AXIS2_PLACEMENT_3D('',#264,#218,#219);
#182=AXIS2_PLACEMENT_3D('',#266,#220,#221);
#183=AXIS2_PLACEMENT_3D('',#270,#223,#224);
#184=AXIS2_PLACEMENT_3D('',#272,#225,#226);
#185=AXIS2_PLACEMENT_3D('',#294,#227,#228);
#186=AXIS2_PLACEMENT_3D('',#295,#229,#230);
#187=AXIS2_PLACEMENT_3D('',#296,#231,#232);
#188=AXIS2_PLACEMENT_3D('',#297,#233,#234);
#189=AXIS2_PLACEMENT_3D('',#298,#235,#236);
#190=AXIS2_PLACEMENT_3D('',#300,#237,#238);
#191=AXIS2_PLACEMENT_3D('',#301,#239,#240);
#192=AXIS2_PLACEMENT_3D('',#302,#241,#242);
#193=AXIS2_PLACEMENT_3D('',#303,#243,#244);
#194=DIRECTION('axis',(0.,0.,1.));
#195=DIRECTION('refdir',(1.,0.,0.));
#196=DIRECTION('center_axis',(-0.999657324975557,-0.0261769483078737,0.));
#197=DIRECTION('ref_axis',(-0.0261769483078737,0.999657324975557,0.));
#198=DIRECTION('center_axis',(0.999914327574007,0.0130895955713474,0.));
#199=DIRECTION('ref_axis',(-0.0130895955713474,0.999914327574007,0.));
#200=DIRECTION('',(-0.999657324975557,-0.0261769483078737,0.));
#201=DIRECTION('center_axis',(0.999657324975557,0.0261769483078737,0.));
#202=DIRECTION('ref_axis',(-0.0261769483078737,0.999657324975557,0.));
#203=DIRECTION('center_axis',(0.999914327574007,0.0130895955713474,0.));
#204=DIRECTION('ref_axis',(-0.0130895955713474,0.999914327574007,0.));
#205=DIRECTION('center_axis',(0.999914327574007,0.0130895955713448,0.));
#206=DIRECTION('ref_axis',(-0.0130895955713448,0.999914327574007,0.));
#207=DIRECTION('center_axis',(-1.,-1.22464679914737E-16,0.));
#208=DIRECTION('ref_axis',(-1.22464679914737E-16,1.,0.));
#209=DIRECTION('center_axis',(-1.,-1.60812264967664E-16,0.));
#210=DIRECTION('ref_axis',(-1.60812264967664E-16,1.,0.));
#211=DIRECTION('',(-1.,-1.22464679914737E-16,0.));
#212=DIRECTION('center_axis',(0.,0.,1.));
#213=DIRECTION('ref_axis',(1.,0.,0.));
#214=DIRECTION('center_axis',(0.,1.,0.));
#215=DIRECTION('ref_axis',(1.,0.,0.));
#216=DIRECTION('center_axis',(0.,0.,1.));
#217=DIRECTION('ref_axis',(1.,0.,0.));
#218=DIRECTION('center_axis',(-0.999657324975557,-0.0261769483078737,0.));
#219=DIRECTION('ref_axis',(0.0261769483078737,-0.999657324975557,0.));
#220=DIRECTION('center_axis',(-0.999657324975557,-0.0261769483078737,0.));
#221=DIRECTION('ref_axis',(0.0261769483078737,-0.999657324975557,0.));
#222=DIRECTION('',(0.999657324975557,0.0261769483078737,0.));
#223=DIRECTION('center_axis',(0.999914327574007,0.0130895955713448,0.));
#224=DIRECTION('ref_axis',(0.0130895955713448,-0.999914327574007,0.));
#225=DIRECTION('center_axis',(0.999914327574007,0.013089595571347,0.));
#226=DIRECTION('ref_axis',(0.013089595571347,-0.999914327574007,0.));
#227=DIRECTION('center_axis',(0.999914327574007,0.013089595571347,0.));
#228=DIRECTION('ref_axis',(0.013089595571347,-0.999914327574007,0.));
#229=DIRECTION('center_axis',(0.999914327574007,0.0130895955713448,0.));
#230=DIRECTION('ref_axis',(0.0130895955713448,-0.999914327574007,0.));
#231=DIRECTION('center_axis',(-0.999657324975557,-0.0261769483078737,0.));
#232=DIRECTION('ref_axis',(0.,0.,1.));
#233=DIRECTION('center_axis',(0.,0.,1.));
#234=DIRECTION('ref_axis',(1.,0.,0.));
#235=DIRECTION('center_axis',(-1.,-1.60812264967664E-16,0.));
#236=DIRECTION('ref_axis',(1.60812264967664E-16,-1.,0.));
#237=DIRECTION('center_axis',(0.,0.,-1.));
#238=DIRECTION('ref_axis',(1.,0.,0.));
#239=DIRECTION('center_axis',(0.,1.,0.));
#240=DIRECTION('ref_axis',(-1.,0.,0.));
#241=DIRECTION('center_axis',(-1.,-1.22464679914737E-16,0.));
#242=DIRECTION('ref_axis',(-1.22464679914737E-16,1.,1.22464679914735E-16));
#243=DIRECTION('center_axis',(0.,1.,0.));
#244=DIRECTION('ref_axis',(0.,0.,1.));
#245=CARTESIAN_POINT('',(0.,0.,0.));
#246=CARTESIAN_POINT('Origin',(-75.4,-9.43689570931383E-15,0.));
#247=CARTESIAN_POINT('',(-75.4,-7.47549486648513E-13,29.75));
#248=CARTESIAN_POINT('',(-75.0105511667261,-29.75,3.64332422746338E-15));
#249=CARTESIAN_POINT('Origin',(-75.4,-8.9717094748496E-15,0.));
#250=CARTESIAN_POINT('',(-75.7212357878408,-29.7686099317489,3.64332422746338E-15));
#251=CARTESIAN_POINT('',(-74.6212357878408,-29.7398054180228,3.64332422746338E-15));
#252=CARTESIAN_POINT('Origin',(-76.5,-0.0288045137261159,0.));
#253=CARTESIAN_POINT('',(-75.4,-7.47549486648513E-13,-29.75));
#254=CARTESIAN_POINT('Origin',(-75.4,-8.9717094748496E-15,0.));
#255=CARTESIAN_POINT('Origin',(-75.4,-8.9717094748496E-15,0.));
#256=CARTESIAN_POINT('Origin',(-75.,-8.88178419700126E-15,0.));
#257=CARTESIAN_POINT('',(-75.,-29.75,3.64332422746338E-15));
#258=CARTESIAN_POINT('Origin',(-75.,-8.88178419700126E-15,0.));
#259=CARTESIAN_POINT('',(-75.,-29.75,3.64332422746338E-15));
#260=CARTESIAN_POINT('Origin',(-75.,-75.,0.));
#261=CARTESIAN_POINT('',(-29.75,-75.,3.64332422746338E-15));
#262=CARTESIAN_POINT('Origin',(0.,-75.,0.));
#263=CARTESIAN_POINT('Origin',(-75.,-75.,-3.64332422746338E-15));
#264=CARTESIAN_POINT('Origin',(-75.4,-9.43689570931383E-15,0.));
#265=CARTESIAN_POINT('',(-77.331118108775,31.7103155542478,-3.88825358729285E-15));
#266=CARTESIAN_POINT('Origin',(-76.5,-0.0288045137261159,0.));
#267=CARTESIAN_POINT('',(-75.8156302674435,31.75,-3.88825358729285E-15));
#268=CARTESIAN_POINT('',(-76.231118108775,31.7391200679739,-3.88825358729285E-15));
#269=CARTESIAN_POINT('',(-75.4,-7.47549486648133E-13,-31.75));
#270=CARTESIAN_POINT('Origin',(-75.4,-8.9717094748496E-15,0.));
#271=CARTESIAN_POINT('',(-75.,-30.5560037244469,-8.62514558668954));
#272=CARTESIAN_POINT('Origin',(-75.4,-8.9717094748496E-15,0.));
#273=CARTESIAN_POINT('',(-74.9844761263381,-31.7500027860192,0.));
#274=CARTESIAN_POINT('Ctrl Pts',(-74.9844761263375,-31.7500027860192,-1.38777878078145E-16));
#275=CARTESIAN_POINT('Ctrl Pts',(-74.9844761263375,-31.7500027860192,-0.396573369401033));
#276=CARTESIAN_POINT('Ctrl Pts',(-74.9845720457453,-31.7425726514189,-0.793138566722758));
#277=CARTESIAN_POINT('Ctrl Pts',(-74.9851812316557,-31.695402465446,-2.05132417329776));
#278=CARTESIAN_POINT('Ctrl Pts',(-74.9860518147186,-31.6279890480452,-2.91148679864081));
#279=CARTESIAN_POINT('Ctrl Pts',(-74.9899171030957,-31.3294077088562,-5.40972081319336));
#280=CARTESIAN_POINT('Ctrl Pts',(-74.9941195995477,-31.0052075697482,-7.03376672448453));
#281=CARTESIAN_POINT('Ctrl Pts',(-74.9999999999999,-30.5560037244527,-8.62514558666892));
#282=CARTESIAN_POINT('',(-75.,-30.5560037244469,8.62514558668954));
#283=CARTESIAN_POINT('Ctrl Pts',(-75.,-30.5560037244527,8.62514558666892));
#284=CARTESIAN_POINT('Ctrl Pts',(-74.9989798746917,-30.6339311062531,8.34907495752945));
#285=CARTESIAN_POINT('Ctrl Pts',(-74.9980101122131,-30.7081135802976,8.07196074993357));
#286=CARTESIAN_POINT('Ctrl Pts',(-74.9922789070931,-31.1470235151759,6.33867868193746));
#287=CARTESIAN_POINT('Ctrl Pts',(-74.9888488759123,-31.4118519907246,4.85917229586214));
#288=CARTESIAN_POINT('Ctrl Pts',(-74.9856632827805,-31.6580605210652,2.55023706756462));
#289=CARTESIAN_POINT('Ctrl Pts',(-74.9849486226013,-31.713411661455,1.73090837977989));
#290=CARTESIAN_POINT('Ctrl Pts',(-74.9845323010119,-31.7456516069076,0.606962857021976));
#291=CARTESIAN_POINT('Ctrl Pts',(-74.9844761263375,-31.7500027860192,0.303479035675322));
#292=CARTESIAN_POINT('Ctrl Pts',(-74.9844761263375,-31.7500027860192,-1.38777878078145E-16));
#293=CARTESIAN_POINT('',(-75.4,-7.47549486648133E-13,31.75));
#294=CARTESIAN_POINT('Origin',(-75.4,-8.9717094748496E-15,0.));
#295=CARTESIAN_POINT('Origin',(-75.4,-8.9717094748496E-15,0.));
#296=CARTESIAN_POINT('Origin',(-76.5,-0.0288045137261159,0.));
#297=CARTESIAN_POINT('Origin',(-75.,-75.,0.));
#298=CARTESIAN_POINT('Origin',(-75.,-8.88178419700126E-15,0.));
#299=CARTESIAN_POINT('',(-31.75,-75.,0.));
#300=CARTESIAN_POINT('Origin',(-75.,-75.,-3.88825358729285E-15));
#301=CARTESIAN_POINT('Origin',(0.,-75.,0.));
#302=CARTESIAN_POINT('Origin',(-75.,-8.88178419700126E-15,0.));
#303=CARTESIAN_POINT('Origin',(0.,-75.,0.));
#304=CARTESIAN_POINT('',(0.,0.,0.));
#305=UNCERTAINTY_MEASURE_WITH_UNIT(LENGTH_MEASURE(0.01),#309,
'DISTANCE_ACCURACY_VALUE',
'Maximum model space distance between geometric entities at asserted c
onnectivities');
#306=UNCERTAINTY_MEASURE_WITH_UNIT(LENGTH_MEASURE(0.01),#309,
'DISTANCE_ACCURACY_VALUE',
'Maximum model space distance between geometric entities at asserted c
onnectivities');
#307=(
GEOMETRIC_REPRESENTATION_CONTEXT(3)
GLOBAL_UNCERTAINTY_ASSIGNED_CONTEXT((#305))
GLOBAL_UNIT_ASSIGNED_CONTEXT((#309,#311,#312))
REPRESENTATION_CONTEXT('','3D')
);
#308=(
GEOMETRIC_REPRESENTATION_CONTEXT(3)
GLOBAL_UNCERTAINTY_ASSIGNED_CONTEXT((#306))
GLOBAL_UNIT_ASSIGNED_CONTEXT((#309,#311,#312))
REPRESENTATION_CONTEXT('','3D')
);
#309=(
LENGTH_UNIT()
NAMED_UNIT(*)
SI_UNIT(.MILLI.,.METRE.)
);
#310=(
LENGTH_UNIT()
NAMED_UNIT(*)
SI_UNIT(.CENTI.,.METRE.)
);
#311=(
NAMED_UNIT(*)
PLANE_ANGLE_UNIT()
SI_UNIT($,.RADIAN.)
);
#312=(
NAMED_UNIT(*)
SI_UNIT($,.STERADIAN.)
SOLID_ANGLE_UNIT()
);
#313=SHAPE_DEFINITION_REPRESENTATION(#314,#315);
#314=PRODUCT_DEFINITION_SHAPE('',$,#317);
#315=SHAPE_REPRESENTATION('',(#170),#307);
#316=PRODUCT_DEFINITION_CONTEXT('part definition',#321,'design');
#317=PRODUCT_DEFINITION('D1(91.5\X\B0) 03','D1(91.5\X\B0) 25',#318,#316);
#318=PRODUCT_DEFINITION_FORMATION('',$,#323);
#319=PRODUCT_RELATED_PRODUCT_CATEGORY('D1(91.5\X\B0) 25',
'D1(91.5\X\B0) 25',(#323));
#320=APPLICATION_PROTOCOL_DEFINITION('international standard',
'automotive_design',2009,#321);
#321=APPLICATION_CONTEXT(
'Core Data for Automotive Mechanical Design Process');
#322=PRODUCT_CONTEXT('part definition',#321,'mechanical');
#323=PRODUCT('D1(91.5\X\B0) 03','D1(91.5\X\B0) 25',$,(#322));
#324=PRESENTATION_STYLE_ASSIGNMENT((#325));
#325=SURFACE_STYLE_USAGE(.BOTH.,#328);
#326=SURFACE_STYLE_RENDERING_WITH_PROPERTIES($,#332,(#327));
#327=SURFACE_STYLE_TRANSPARENT(0.);
#328=SURFACE_SIDE_STYLE('',(#329,#326));
#329=SURFACE_STYLE_FILL_AREA(#330);
#330=FILL_AREA_STYLE('',(#331));
#331=FILL_AREA_STYLE_COLOUR('',#332);
#332=COLOUR_RGB('',0.749019607843137,0.749019607843137,0.749019607843137);
ENDSEC;
END-ISO-10303-21;
