ISO-10303-21;
HEADER;
/* Generated by software containing ST-Developer
 * from STEP Tools, Inc. (www.steptools.com) 
 */

FILE_DESCRIPTION(
/* description */ (''),
/* implementation_level */ '2;1');

FILE_NAME(
/* name */ 
'\\\\Tske00\\w\\Work\\TOSTE\\\X2\7D99624B\X0\\\02_\X2\6EB663A5\X0\\\\X2\6EB663A530A830EB30DC\X0\\\
D1(91.5\X\B0)\\D1(91.5\X\B0) 20.stp',
/* time_stamp */ '2022-04-13T15:45:29+09:00',
/* author */ ('3dcad-eng'),
/* organization */ (''),
/* preprocessor_version */ 'ST-DEVELOPER v18.1',
/* originating_system */ 'Autodesk Inventor 2022',
/* authorisation */ '');

FILE_SCHEMA (('AUTOMOTIVE_DESIGN { 1 0 10303 214 3 1 1 }'));
ENDSEC;

DATA;
#10=MECHANICAL_DESIGN_GEOMETRIC_PRESENTATION_REPRESENTATION('',(#16),#287);
#11=CONSTRUCTIVE_GEOMETRY_REPRESENTATION_RELATIONSHIP('CGRR','None',#294,
#12);
#12=CONSTRUCTIVE_GEOMETRY_REPRESENTATION('',(#13),#286);
#13=GEOMETRIC_CURVE_SET('\X2\30B930B130C330C1\X0\4',(#283));
#14=SHAPE_REPRESENTATION_RELATIONSHIP('SRR','None',#294,#15);
#15=ADVANCED_BREP_SHAPE_REPRESENTATION('',(#17),#286);
#16=STYLED_ITEM('',(#303),#17);
#17=MANIFOLD_SOLID_BREP('\X2\30BD30EA30C330C9\X0\5',#147);
#18=FACE_BOUND('',#37,.T.);
#19=FACE_BOUND('',#41,.T.);
#20=PLANE('',#182);
#21=PLANE('',#189);
#22=TOROIDAL_SURFACE('',#174,57.5,23.9);
#23=TOROIDAL_SURFACE('',#186,57.5,25.4);
#24=FACE_OUTER_BOUND('',#32,.T.);
#25=FACE_OUTER_BOUND('',#33,.T.);
#26=FACE_OUTER_BOUND('',#34,.T.);
#27=FACE_OUTER_BOUND('',#35,.T.);
#28=FACE_OUTER_BOUND('',#36,.T.);
#29=FACE_OUTER_BOUND('',#38,.T.);
#30=FACE_OUTER_BOUND('',#39,.T.);
#31=FACE_OUTER_BOUND('',#40,.T.);
#32=EDGE_LOOP('',(#97,#98,#99,#100,#101,#102));
#33=EDGE_LOOP('',(#103,#104,#105,#106,#107,#108));
#34=EDGE_LOOP('',(#109,#110,#111,#112));
#35=EDGE_LOOP('',(#113,#114,#115,#116,#117,#118));
#36=EDGE_LOOP('',(#119));
#37=EDGE_LOOP('',(#120));
#38=EDGE_LOOP('',(#121,#122,#123,#124,#125,#126,#127));
#39=EDGE_LOOP('',(#128,#129,#130,#131,#132));
#40=EDGE_LOOP('',(#133));
#41=EDGE_LOOP('',(#134));
#42=CIRCLE('',#169,23.9);
#43=CIRCLE('',#173,23.9);
#44=CIRCLE('',#175,23.9);
#45=CIRCLE('',#176,33.6);
#46=CIRCLE('',#178,25.4);
#47=CIRCLE('',#184,25.4);
#48=CIRCLE('',#185,25.4);
#49=CIRCLE('',#187,32.1);
#50=CIRCLE('',#188,25.4);
#51=LINE('',#248,#55);
#52=LINE('',#256,#56);
#53=LINE('',#265,#57);
#54=LINE('',#274,#58);
#55=VECTOR('',#196,23.9);
#56=VECTOR('',#207,23.9);
#57=VECTOR('',#218,25.4);
#58=VECTOR('',#229,25.4);
#59=ELLIPSE('',#168,23.9020477464166,23.9);
#60=ELLIPSE('',#170,23.9020477464166,23.9);
#61=ELLIPSE('',#171,23.9020477464166,23.9);
#62=ELLIPSE('',#179,25.4021762660662,25.4);
#63=ELLIPSE('',#180,25.4021762660662,25.4);
#64=ELLIPSE('',#181,25.4021762660662,25.4);
#65=VERTEX_POINT('',#244);
#66=VERTEX_POINT('',#245);
#67=VERTEX_POINT('',#247);
#68=VERTEX_POINT('',#250);
#69=VERTEX_POINT('',#254);
#70=VERTEX_POINT('',#258);
#71=VERTEX_POINT('',#262);
#72=VERTEX_POINT('',#264);
#73=VERTEX_POINT('',#266);
#74=VERTEX_POINT('',#268);
#75=VERTEX_POINT('',#273);
#76=VERTEX_POINT('',#275);
#77=VERTEX_POINT('',#279);
#78=EDGE_CURVE('',#65,#66,#59,.T.);
#79=EDGE_CURVE('',#66,#67,#51,.T.);
#80=EDGE_CURVE('',#67,#67,#42,.T.);
#81=EDGE_CURVE('',#66,#68,#60,.T.);
#82=EDGE_CURVE('',#68,#65,#61,.T.);
#83=EDGE_CURVE('',#69,#69,#43,.T.);
#84=EDGE_CURVE('',#69,#66,#52,.T.);
#85=EDGE_CURVE('',#70,#70,#44,.T.);
#86=EDGE_CURVE('',#70,#69,#45,.T.);
#87=EDGE_CURVE('',#71,#71,#46,.T.);
#88=EDGE_CURVE('',#71,#72,#53,.T.);
#89=EDGE_CURVE('',#73,#72,#62,.T.);
#90=EDGE_CURVE('',#74,#73,#63,.T.);
#91=EDGE_CURVE('',#72,#74,#64,.T.);
#92=EDGE_CURVE('',#72,#75,#54,.T.);
#93=EDGE_CURVE('',#75,#76,#47,.T.);
#94=EDGE_CURVE('',#76,#75,#48,.T.);
#95=EDGE_CURVE('',#76,#77,#49,.T.);
#96=EDGE_CURVE('',#77,#77,#50,.T.);
#97=ORIENTED_EDGE('',*,*,#78,.T.);
#98=ORIENTED_EDGE('',*,*,#79,.T.);
#99=ORIENTED_EDGE('',*,*,#80,.F.);
#100=ORIENTED_EDGE('',*,*,#79,.F.);
#101=ORIENTED_EDGE('',*,*,#81,.T.);
#102=ORIENTED_EDGE('',*,*,#82,.T.);
#103=ORIENTED_EDGE('',*,*,#83,.F.);
#104=ORIENTED_EDGE('',*,*,#84,.T.);
#105=ORIENTED_EDGE('',*,*,#78,.F.);
#106=ORIENTED_EDGE('',*,*,#82,.F.);
#107=ORIENTED_EDGE('',*,*,#81,.F.);
#108=ORIENTED_EDGE('',*,*,#84,.F.);
#109=ORIENTED_EDGE('',*,*,#85,.F.);
#110=ORIENTED_EDGE('',*,*,#86,.T.);
#111=ORIENTED_EDGE('',*,*,#83,.T.);
#112=ORIENTED_EDGE('',*,*,#86,.F.);
#113=ORIENTED_EDGE('',*,*,#87,.F.);
#114=ORIENTED_EDGE('',*,*,#88,.T.);
#115=ORIENTED_EDGE('',*,*,#89,.F.);
#116=ORIENTED_EDGE('',*,*,#90,.F.);
#117=ORIENTED_EDGE('',*,*,#91,.F.);
#118=ORIENTED_EDGE('',*,*,#88,.F.);
#119=ORIENTED_EDGE('',*,*,#87,.T.);
#120=ORIENTED_EDGE('',*,*,#80,.T.);
#121=ORIENTED_EDGE('',*,*,#90,.T.);
#122=ORIENTED_EDGE('',*,*,#89,.T.);
#123=ORIENTED_EDGE('',*,*,#92,.T.);
#124=ORIENTED_EDGE('',*,*,#93,.T.);
#125=ORIENTED_EDGE('',*,*,#94,.T.);
#126=ORIENTED_EDGE('',*,*,#92,.F.);
#127=ORIENTED_EDGE('',*,*,#91,.T.);
#128=ORIENTED_EDGE('',*,*,#94,.F.);
#129=ORIENTED_EDGE('',*,*,#95,.T.);
#130=ORIENTED_EDGE('',*,*,#96,.T.);
#131=ORIENTED_EDGE('',*,*,#95,.F.);
#132=ORIENTED_EDGE('',*,*,#93,.F.);
#133=ORIENTED_EDGE('',*,*,#96,.F.);
#134=ORIENTED_EDGE('',*,*,#85,.T.);
#135=CYLINDRICAL_SURFACE('',#167,23.9);
#136=CYLINDRICAL_SURFACE('',#172,23.9);
#137=CYLINDRICAL_SURFACE('',#177,25.4);
#138=CYLINDRICAL_SURFACE('',#183,25.4);
#139=ADVANCED_FACE('',(#24),#135,.F.);
#140=ADVANCED_FACE('',(#25),#136,.F.);
#141=ADVANCED_FACE('',(#26),#22,.F.);
#142=ADVANCED_FACE('',(#27),#137,.T.);
#143=ADVANCED_FACE('',(#28,#18),#20,.T.);
#144=ADVANCED_FACE('',(#29),#138,.T.);
#145=ADVANCED_FACE('',(#30),#23,.T.);
#146=ADVANCED_FACE('',(#31,#19),#21,.F.);
#147=CLOSED_SHELL('',(#139,#140,#141,#142,#143,#144,#145,#146));
#148=DERIVED_UNIT_ELEMENT(#150,1.);
#149=DERIVED_UNIT_ELEMENT(#289,-3.);
#150=(
MASS_UNIT()
NAMED_UNIT(*)
SI_UNIT($,.GRAM.)
);
#151=DERIVED_UNIT((#148,#149));
#152=MEASURE_REPRESENTATION_ITEM('density measure',
POSITIVE_RATIO_MEASURE(1.),#151);
#153=PROPERTY_DEFINITION_REPRESENTATION(#158,#155);
#154=PROPERTY_DEFINITION_REPRESENTATION(#159,#156);
#155=REPRESENTATION('material name',(#157),#286);
#156=REPRESENTATION('density',(#152),#286);
#157=DESCRIPTIVE_REPRESENTATION_ITEM('\X2\4E00822C\X0\','\X2\4E00822C\X0\');
#158=PROPERTY_DEFINITION('material property','material name',#296);
#159=PROPERTY_DEFINITION('material property','density of part',#296);
#160=DATE_TIME_ROLE('creation_date');
#161=APPLIED_DATE_AND_TIME_ASSIGNMENT(#162,#160,(#296));
#162=DATE_AND_TIME(#163,#164);
#163=CALENDAR_DATE(2022,13,4);
#164=LOCAL_TIME(0,0,0.,#165);
#165=COORDINATED_UNIVERSAL_TIME_OFFSET(0,0,.BEHIND.);
#166=AXIS2_PLACEMENT_3D('placement',#242,#190,#191);
#167=AXIS2_PLACEMENT_3D('',#243,#192,#193);
#168=AXIS2_PLACEMENT_3D('',#246,#194,#195);
#169=AXIS2_PLACEMENT_3D('',#249,#197,#198);
#170=AXIS2_PLACEMENT_3D('',#251,#199,#200);
#171=AXIS2_PLACEMENT_3D('',#252,#201,#202);
#172=AXIS2_PLACEMENT_3D('',#253,#203,#204);
#173=AXIS2_PLACEMENT_3D('',#255,#205,#206);
#174=AXIS2_PLACEMENT_3D('',#257,#208,#209);
#175=AXIS2_PLACEMENT_3D('',#259,#210,#211);
#176=AXIS2_PLACEMENT_3D('',#260,#212,#213);
#177=AXIS2_PLACEMENT_3D('',#261,#214,#215);
#178=AXIS2_PLACEMENT_3D('',#263,#216,#217);
#179=AXIS2_PLACEMENT_3D('',#267,#219,#220);
#180=AXIS2_PLACEMENT_3D('',#269,#221,#222);
#181=AXIS2_PLACEMENT_3D('',#270,#223,#224);
#182=AXIS2_PLACEMENT_3D('',#271,#225,#226);
#183=AXIS2_PLACEMENT_3D('',#272,#227,#228);
#184=AXIS2_PLACEMENT_3D('',#276,#230,#231);
#185=AXIS2_PLACEMENT_3D('',#277,#232,#233);
#186=AXIS2_PLACEMENT_3D('',#278,#234,#235);
#187=AXIS2_PLACEMENT_3D('',#280,#236,#237);
#188=AXIS2_PLACEMENT_3D('',#281,#238,#239);
#189=AXIS2_PLACEMENT_3D('',#282,#240,#241);
#190=DIRECTION('axis',(0.,0.,1.));
#191=DIRECTION('refdir',(1.,0.,0.));
#192=DIRECTION('center_axis',(-0.999657324975557,-0.0261769483078737,0.));
#193=DIRECTION('ref_axis',(-0.0261769483078737,0.999657324975557,0.));
#194=DIRECTION('center_axis',(0.999914327574007,0.0130895955713477,0.));
#195=DIRECTION('ref_axis',(-0.0130895955713477,0.999914327574007,0.));
#196=DIRECTION('',(-0.999657324975557,-0.0261769483078737,0.));
#197=DIRECTION('center_axis',(0.999657324975557,0.0261769483078735,0.));
#198=DIRECTION('ref_axis',(-0.0261769483078737,0.999657324975557,0.));
#199=DIRECTION('center_axis',(0.999914327574007,0.0130895955713477,0.));
#200=DIRECTION('ref_axis',(-0.0130895955713477,0.999914327574007,0.));
#201=DIRECTION('center_axis',(0.999914327574007,0.0130895955713448,0.));
#202=DIRECTION('ref_axis',(-0.0130895955713448,0.999914327574007,0.));
#203=DIRECTION('center_axis',(-1.,-1.22464679914737E-16,0.));
#204=DIRECTION('ref_axis',(-1.22464679914737E-16,1.,0.));
#205=DIRECTION('center_axis',(-1.,6.12323399573677E-17,0.));
#206=DIRECTION('ref_axis',(6.12323399573677E-17,1.,0.));
#207=DIRECTION('',(-1.,-1.22464679914737E-16,0.));
#208=DIRECTION('center_axis',(0.,0.,1.));
#209=DIRECTION('ref_axis',(1.,0.,0.));
#210=DIRECTION('center_axis',(0.,1.,0.));
#211=DIRECTION('ref_axis',(1.,0.,0.));
#212=DIRECTION('center_axis',(0.,0.,1.));
#213=DIRECTION('ref_axis',(1.,0.,0.));
#214=DIRECTION('center_axis',(-0.999657324975557,-0.0261769483078737,0.));
#215=DIRECTION('ref_axis',(0.0261769483078737,-0.999657324975557,0.));
#216=DIRECTION('center_axis',(-0.999657324975557,-0.0261769483078735,0.));
#217=DIRECTION('ref_axis',(0.0261769483078735,-0.999657324975557,0.));
#218=DIRECTION('',(0.999657324975557,0.0261769483078737,0.));
#219=DIRECTION('center_axis',(0.999914327574007,0.0130895955713448,0.));
#220=DIRECTION('ref_axis',(0.0130895955713448,-0.999914327574007,0.));
#221=DIRECTION('center_axis',(0.999914327574007,0.0130895955713423,0.));
#222=DIRECTION('ref_axis',(0.0130895955713423,-0.999914327574007,0.));
#223=DIRECTION('center_axis',(0.999914327574007,0.0130895955713448,0.));
#224=DIRECTION('ref_axis',(0.0130895955713448,-0.999914327574007,0.));
#225=DIRECTION('center_axis',(-0.999657324975557,-0.0261769483078735,0.));
#226=DIRECTION('ref_axis',(0.,0.,1.));
#227=DIRECTION('center_axis',(-1.,-1.22464679914737E-16,0.));
#228=DIRECTION('ref_axis',(1.22464679914737E-16,-1.,0.));
#229=DIRECTION('',(1.,1.22464679914737E-16,0.));
#230=DIRECTION('center_axis',(-1.,6.12323399573677E-17,0.));
#231=DIRECTION('ref_axis',(-6.12323399573677E-17,-1.,0.));
#232=DIRECTION('center_axis',(-1.,6.12323399573677E-17,0.));
#233=DIRECTION('ref_axis',(-6.12323399573677E-17,-1.,0.));
#234=DIRECTION('center_axis',(0.,0.,1.));
#235=DIRECTION('ref_axis',(1.,0.,0.));
#236=DIRECTION('center_axis',(0.,0.,-1.));
#237=DIRECTION('ref_axis',(1.,0.,0.));
#238=DIRECTION('center_axis',(0.,1.,0.));
#239=DIRECTION('ref_axis',(-1.,0.,0.));
#240=DIRECTION('center_axis',(0.,1.,0.));
#241=DIRECTION('ref_axis',(0.,0.,1.));
#242=CARTESIAN_POINT('',(0.,0.,0.));
#243=CARTESIAN_POINT('Origin',(-57.9,-1.77635683940025E-14,0.));
#244=CARTESIAN_POINT('',(-57.9,5.36753906189691E-14,23.9));
#245=CARTESIAN_POINT('',(-57.5871318616724,-23.9,2.92690584996218E-15));
#246=CARTESIAN_POINT('Origin',(-57.9,-1.77635683940025E-14,0.));
#247=CARTESIAN_POINT('',(-58.3743709354418,-23.9206145806419,2.92690584996217E-15));
#248=CARTESIAN_POINT('',(-57.2743709354418,-23.8918100669158,2.92690584996217E-15));
#249=CARTESIAN_POINT('Origin',(-59.,-0.028804513726124,0.));
#250=CARTESIAN_POINT('',(-57.9,5.36753906189691E-14,-23.9));
#251=CARTESIAN_POINT('Origin',(-57.9,-1.77635683940025E-14,0.));
#252=CARTESIAN_POINT('Origin',(-57.9,-1.86905168516121E-14,0.));
#253=CARTESIAN_POINT('Origin',(-57.5,-1.77635683940025E-14,0.));
#254=CARTESIAN_POINT('',(-57.5,-23.9,2.92690584996217E-15));
#255=CARTESIAN_POINT('Origin',(-57.5,-1.77635683940025E-14,0.));
#256=CARTESIAN_POINT('',(-57.5,-23.9,2.92690584996217E-15));
#257=CARTESIAN_POINT('Origin',(-57.5,-57.5,0.));
#258=CARTESIAN_POINT('',(-23.9,-57.5,2.92690584996217E-15));
#259=CARTESIAN_POINT('Origin',(0.,-57.5,0.));
#260=CARTESIAN_POINT('Origin',(-57.5,-57.5,-2.92690584996217E-15));
#261=CARTESIAN_POINT('Origin',(-57.9,-1.77635683940025E-14,0.));
#262=CARTESIAN_POINT('',(-59.66489448702,25.362491540653,-3.11060286983428E-15));
#263=CARTESIAN_POINT('Origin',(-59.,-0.0288045137261239,0.));
#264=CARTESIAN_POINT('',(-58.2325042139548,25.4,-3.11060286983428E-15));
#265=CARTESIAN_POINT('',(-58.56489448702,25.3912960543791,-3.11060286983428E-15));
#266=CARTESIAN_POINT('',(-57.9,5.36753906190129E-14,-25.4));
#267=CARTESIAN_POINT('Origin',(-57.9,-1.77605248283857E-14,0.));
#268=CARTESIAN_POINT('',(-57.9,5.36753906190129E-14,25.4));
#269=CARTESIAN_POINT('Origin',(-57.9,-1.77635683940025E-14,0.));
#270=CARTESIAN_POINT('Origin',(-57.9,-1.77605248283857E-14,0.));
#271=CARTESIAN_POINT('Origin',(-59.,-0.0288045137261239,0.));
#272=CARTESIAN_POINT('Origin',(-57.5,-1.77635683940025E-14,0.));
#273=CARTESIAN_POINT('',(-57.5,25.4,-3.11060286983428E-15));
#274=CARTESIAN_POINT('',(-57.5,25.4,-3.11060286983428E-15));
#275=CARTESIAN_POINT('',(-57.5,-25.4,0.));
#276=CARTESIAN_POINT('Origin',(-57.5,-1.77635683940025E-14,0.));
#277=CARTESIAN_POINT('Origin',(-57.5,-1.77635683940025E-14,0.));
#278=CARTESIAN_POINT('Origin',(-57.5,-57.5,0.));
#279=CARTESIAN_POINT('',(-25.4,-57.5,0.));
#280=CARTESIAN_POINT('Origin',(-57.5,-57.5,-3.11060286983428E-15));
#281=CARTESIAN_POINT('Origin',(0.,-57.5,0.));
#282=CARTESIAN_POINT('Origin',(0.,-57.5,0.));
#283=CARTESIAN_POINT('',(0.,0.,0.));
#284=UNCERTAINTY_MEASURE_WITH_UNIT(LENGTH_MEASURE(0.01),#288,
'DISTANCE_ACCURACY_VALUE',
'Maximum model space distance between geometric entities at asserted c
onnectivities');
#285=UNCERTAINTY_MEASURE_WITH_UNIT(LENGTH_MEASURE(0.01),#288,
'DISTANCE_ACCURACY_VALUE',
'Maximum model space distance between geometric entities at asserted c
onnectivities');
#286=(
GEOMETRIC_REPRESENTATION_CONTEXT(3)
GLOBAL_UNCERTAINTY_ASSIGNED_CONTEXT((#284))
GLOBAL_UNIT_ASSIGNED_CONTEXT((#288,#290,#291))
REPRESENTATION_CONTEXT('','3D')
);
#287=(
GEOMETRIC_REPRESENTATION_CONTEXT(3)
GLOBAL_UNCERTAINTY_ASSIGNED_CONTEXT((#285))
GLOBAL_UNIT_ASSIGNED_CONTEXT((#288,#290,#291))
REPRESENTATION_CONTEXT('','3D')
);
#288=(
LENGTH_UNIT()
NAMED_UNIT(*)
SI_UNIT(.MILLI.,.METRE.)
);
#289=(
LENGTH_UNIT()
NAMED_UNIT(*)
SI_UNIT(.CENTI.,.METRE.)
);
#290=(
NAMED_UNIT(*)
PLANE_ANGLE_UNIT()
SI_UNIT($,.RADIAN.)
);
#291=(
NAMED_UNIT(*)
SI_UNIT($,.STERADIAN.)
SOLID_ANGLE_UNIT()
);
#292=SHAPE_DEFINITION_REPRESENTATION(#293,#294);
#293=PRODUCT_DEFINITION_SHAPE('',$,#296);
#294=SHAPE_REPRESENTATION('',(#166),#286);
#295=PRODUCT_DEFINITION_CONTEXT('part definition',#300,'design');
#296=PRODUCT_DEFINITION('D1(91.5\X\B0) 03','D1(91.5\X\B0) 20',#297,#295);
#297=PRODUCT_DEFINITION_FORMATION('',$,#302);
#298=PRODUCT_RELATED_PRODUCT_CATEGORY('D1(91.5\X\B0) 20',
'D1(91.5\X\B0) 20',(#302));
#299=APPLICATION_PROTOCOL_DEFINITION('international standard',
'automotive_design',2009,#300);
#300=APPLICATION_CONTEXT(
'Core Data for Automotive Mechanical Design Process');
#301=PRODUCT_CONTEXT('part definition',#300,'mechanical');
#302=PRODUCT('D1(91.5\X\B0) 03','D1(91.5\X\B0) 20',$,(#301));
#303=PRESENTATION_STYLE_ASSIGNMENT((#304));
#304=SURFACE_STYLE_USAGE(.BOTH.,#307);
#305=SURFACE_STYLE_RENDERING_WITH_PROPERTIES($,#311,(#306));
#306=SURFACE_STYLE_TRANSPARENT(0.);
#307=SURFACE_SIDE_STYLE('',(#308,#305));
#308=SURFACE_STYLE_FILL_AREA(#309);
#309=FILL_AREA_STYLE('',(#310));
#310=FILL_AREA_STYLE_COLOUR('',#311);
#311=COLOUR_RGB('',0.749019607843137,0.749019607843137,0.749019607843137);
ENDSEC;
END-ISO-10303-21;
