ISO-10303-21;
HEADER;
/* Generated by software containing ST-Developer
 * from STEP Tools, Inc. (www.steptools.com) 
 */

FILE_DESCRIPTION(
/* description */ (''),
/* implementation_level */ '2;1');

FILE_NAME(
/* name */ 
'\\\\Tske00\\w\\Work\\TOSTE\\\X2\7D99624B\X0\\\02_\X2\6EB663A5\X0\\\\X2\6EB663A5752830C130FC30BA\X0\\\
D8(R)\\D8(R) 60\X\D750.stp',
/* time_stamp */ '2022-04-12T17:56:56+09:00',
/* author */ ('3dcad-eng'),
/* organization */ (''),
/* preprocessor_version */ 'ST-DEVELOPER v18.1',
/* originating_system */ 'Autodesk Inventor 2022',
/* authorisation */ '');

FILE_SCHEMA (('AUTOMOTIVE_DESIGN { 1 0 10303 214 3 1 1 }'));
ENDSEC;

DATA;
#10=MECHANICAL_DESIGN_GEOMETRIC_PRESENTATION_REPRESENTATION('',(#13),#355);
#11=SHAPE_REPRESENTATION_RELATIONSHIP('SRR','None',#362,#12);
#12=ADVANCED_BREP_SHAPE_REPRESENTATION('',(#14),#354);
#13=STYLED_ITEM('',(#371),#14);
#14=MANIFOLD_SOLID_BREP('\X2\30BD30EA30C330C9\X0\1',#123);
#15=PLANE('',#150);
#16=PLANE('',#151);
#17=PLANE('',#155);
#18=FACE_BOUND('',#32,.T.);
#19=FACE_BOUND('',#35,.T.);
#20=FACE_BOUND('',#37,.T.);
#21=FACE_BOUND('',#39,.T.);
#22=FACE_BOUND('',#41,.T.);
#23=FACE_OUTER_BOUND('',#30,.T.);
#24=FACE_OUTER_BOUND('',#31,.T.);
#25=FACE_OUTER_BOUND('',#33,.T.);
#26=FACE_OUTER_BOUND('',#34,.T.);
#27=FACE_OUTER_BOUND('',#36,.T.);
#28=FACE_OUTER_BOUND('',#38,.T.);
#29=FACE_OUTER_BOUND('',#40,.T.);
#30=EDGE_LOOP('',(#84,#85,#86,#87,#88));
#31=EDGE_LOOP('',(#89,#90,#91,#92));
#32=EDGE_LOOP('',(#93,#94));
#33=EDGE_LOOP('',(#95,#96,#97,#98,#99));
#34=EDGE_LOOP('',(#100));
#35=EDGE_LOOP('',(#101));
#36=EDGE_LOOP('',(#102));
#37=EDGE_LOOP('',(#103));
#38=EDGE_LOOP('',(#104,#105,#106,#107));
#39=EDGE_LOOP('',(#108,#109));
#40=EDGE_LOOP('',(#110));
#41=EDGE_LOOP('',(#111));
#42=CIRCLE('',#144,66.9);
#43=CIRCLE('',#146,79.6);
#44=CIRCLE('',#147,79.6);
#45=CIRCLE('',#149,69.9);
#46=CIRCLE('',#152,82.6);
#47=CIRCLE('',#154,82.6);
#48=LINE('',#261,#52);
#49=LINE('',#267,#53);
#50=LINE('',#273,#54);
#51=LINE('',#350,#55);
#52=VECTOR('',#160,66.9);
#53=VECTOR('',#167,79.6);
#54=VECTOR('',#174,69.9);
#55=VECTOR('',#185,82.6);
#56=B_SPLINE_CURVE_WITH_KNOTS('',3,(#192,#193,#194,#195,#196,#197,#198,
#199,#200,#201,#202,#203,#204,#205,#206,#207,#208,#209,#210,#211,#212,#213,
#214,#215,#216,#217,#218,#219,#220,#221,#222,#223,#224,#225,#226,#227,#228,
#229,#230,#231,#232,#233,#234,#235,#236,#237,#238,#239,#240,#241),
 .UNSPECIFIED.,.F.,.F.,(4,2,2,2,2,2,2,2,2,2,2,2,2,2,2,2,2,2,2,2,2,2,2,2,
4),(0.,1.39848178556599,2.79696357113197,4.19544535669796,5.59392714226395,
6.93216749016901,8.27040783807407,9.60864818597912,10.9468885338842,12.2851288817892,
13.6233692296943,14.9616095775994,16.2998499255044,17.6983317110704,19.0968134966364,
20.4952952822024,21.8937770677684,23.2922588533343,24.6907406389003,26.0892224244663,
27.4877042100323,28.8259445579374,30.1641849058424,31.5024252537475,32.8406656016525),
 .UNSPECIFIED.);
#57=B_SPLINE_CURVE_WITH_KNOTS('',3,(#242,#243,#244,#245,#246,#247,#248,
#249,#250,#251,#252,#253,#254,#255,#256,#257,#258,#259),.UNSPECIFIED.,.F.,
 .F.,(4,2,2,2,2,2,2,2,4),(32.8406656016525,34.1789059495576,35.5171462974627,
36.8553866453677,38.1936269932728,39.5921087788388,40.9905905644047,42.3890723499707,
43.7875541355367),.UNSPECIFIED.);
#58=B_SPLINE_CURVE_WITH_KNOTS('',3,(#275,#276,#277,#278,#279,#280,#281,
#282,#283,#284,#285,#286,#287,#288,#289,#290,#291,#292),.UNSPECIFIED.,.F.,
 .F.,(4,2,2,2,2,2,2,2,4),(0.,1.46590916062563,2.93181832125126,4.39772748187689,
5.86363664250252,7.26330843837299,8.66298023424345,10.0626520301139,11.4623238259844),
 .UNSPECIFIED.);
#59=B_SPLINE_CURVE_WITH_KNOTS('',3,(#293,#294,#295,#296,#297,#298,#299,
#300,#301,#302,#303,#304,#305,#306,#307,#308,#309,#310,#311,#312,#313,#314,
#315,#316,#317,#318,#319,#320,#321,#322,#323,#324,#325,#326,#327,#328,#329,
#330,#331,#332,#333,#334,#335,#336,#337,#338,#339,#340,#341,#342),
 .UNSPECIFIED.,.F.,.F.,(4,2,2,2,2,2,2,2,2,2,2,2,2,2,2,2,2,2,2,2,2,2,2,2,
4),(11.4623238259844,12.8619956218548,14.2616674177253,15.6613392135958,
17.0610110094662,18.5269201700919,19.9928293307175,21.4587384913431,22.9246476519688,
24.3905568125944,25.85646597322,27.3223751338456,28.7882842944713,30.1879560903417,
31.5876278862122,32.9872996820827,34.3869714779531,35.7866432738236,37.1863150696941,
38.5859868655645,39.985658661435,41.4515678220606,42.9174769826863,44.3833861433119,
45.8492953039375),.UNSPECIFIED.);
#60=VERTEX_POINT('',#190);
#61=VERTEX_POINT('',#191);
#62=VERTEX_POINT('',#260);
#63=VERTEX_POINT('',#264);
#64=VERTEX_POINT('',#266);
#65=VERTEX_POINT('',#270);
#66=VERTEX_POINT('',#272);
#67=VERTEX_POINT('',#274);
#68=VERTEX_POINT('',#345);
#69=VERTEX_POINT('',#348);
#70=EDGE_CURVE('',#60,#61,#56,.T.);
#71=EDGE_CURVE('',#61,#60,#57,.T.);
#72=EDGE_CURVE('',#61,#62,#48,.T.);
#73=EDGE_CURVE('',#62,#62,#42,.T.);
#74=EDGE_CURVE('',#63,#63,#43,.T.);
#75=EDGE_CURVE('',#63,#64,#49,.T.);
#76=EDGE_CURVE('',#64,#64,#44,.T.);
#77=EDGE_CURVE('',#65,#65,#45,.T.);
#78=EDGE_CURVE('',#65,#66,#50,.T.);
#79=EDGE_CURVE('',#67,#66,#58,.T.);
#80=EDGE_CURVE('',#66,#67,#59,.T.);
#81=EDGE_CURVE('',#68,#68,#46,.T.);
#82=EDGE_CURVE('',#69,#69,#47,.T.);
#83=EDGE_CURVE('',#69,#68,#51,.T.);
#84=ORIENTED_EDGE('',*,*,#70,.F.);
#85=ORIENTED_EDGE('',*,*,#71,.F.);
#86=ORIENTED_EDGE('',*,*,#72,.T.);
#87=ORIENTED_EDGE('',*,*,#73,.F.);
#88=ORIENTED_EDGE('',*,*,#72,.F.);
#89=ORIENTED_EDGE('',*,*,#74,.F.);
#90=ORIENTED_EDGE('',*,*,#75,.T.);
#91=ORIENTED_EDGE('',*,*,#76,.F.);
#92=ORIENTED_EDGE('',*,*,#75,.F.);
#93=ORIENTED_EDGE('',*,*,#70,.T.);
#94=ORIENTED_EDGE('',*,*,#71,.T.);
#95=ORIENTED_EDGE('',*,*,#77,.F.);
#96=ORIENTED_EDGE('',*,*,#78,.T.);
#97=ORIENTED_EDGE('',*,*,#79,.F.);
#98=ORIENTED_EDGE('',*,*,#80,.F.);
#99=ORIENTED_EDGE('',*,*,#78,.F.);
#100=ORIENTED_EDGE('',*,*,#77,.T.);
#101=ORIENTED_EDGE('',*,*,#73,.T.);
#102=ORIENTED_EDGE('',*,*,#81,.T.);
#103=ORIENTED_EDGE('',*,*,#74,.T.);
#104=ORIENTED_EDGE('',*,*,#82,.F.);
#105=ORIENTED_EDGE('',*,*,#83,.T.);
#106=ORIENTED_EDGE('',*,*,#81,.F.);
#107=ORIENTED_EDGE('',*,*,#83,.F.);
#108=ORIENTED_EDGE('',*,*,#79,.T.);
#109=ORIENTED_EDGE('',*,*,#80,.T.);
#110=ORIENTED_EDGE('',*,*,#82,.T.);
#111=ORIENTED_EDGE('',*,*,#76,.T.);
#112=CYLINDRICAL_SURFACE('',#143,66.9);
#113=CYLINDRICAL_SURFACE('',#145,79.6);
#114=CYLINDRICAL_SURFACE('',#148,69.9);
#115=CYLINDRICAL_SURFACE('',#153,82.6);
#116=ADVANCED_FACE('',(#23),#112,.F.);
#117=ADVANCED_FACE('',(#24,#18),#113,.F.);
#118=ADVANCED_FACE('',(#25),#114,.T.);
#119=ADVANCED_FACE('',(#26,#19),#15,.T.);
#120=ADVANCED_FACE('',(#27,#20),#16,.F.);
#121=ADVANCED_FACE('',(#28,#21),#115,.T.);
#122=ADVANCED_FACE('',(#29,#22),#17,.T.);
#123=CLOSED_SHELL('',(#116,#117,#118,#119,#120,#121,#122));
#124=DERIVED_UNIT_ELEMENT(#126,1.);
#125=DERIVED_UNIT_ELEMENT(#357,-3.);
#126=(
MASS_UNIT()
NAMED_UNIT(*)
SI_UNIT($,.GRAM.)
);
#127=DERIVED_UNIT((#124,#125));
#128=MEASURE_REPRESENTATION_ITEM('density measure',
POSITIVE_RATIO_MEASURE(1.),#127);
#129=PROPERTY_DEFINITION_REPRESENTATION(#134,#131);
#130=PROPERTY_DEFINITION_REPRESENTATION(#135,#132);
#131=REPRESENTATION('material name',(#133),#354);
#132=REPRESENTATION('density',(#128),#354);
#133=DESCRIPTIVE_REPRESENTATION_ITEM('\X2\4E00822C\X0\','\X2\4E00822C\X0\');
#134=PROPERTY_DEFINITION('material property','material name',#364);
#135=PROPERTY_DEFINITION('material property','density of part',#364);
#136=DATE_TIME_ROLE('creation_date');
#137=APPLIED_DATE_AND_TIME_ASSIGNMENT(#138,#136,(#364));
#138=DATE_AND_TIME(#139,#140);
#139=CALENDAR_DATE(2022,31,3);
#140=LOCAL_TIME(0,0,0.,#141);
#141=COORDINATED_UNIVERSAL_TIME_OFFSET(0,0,.BEHIND.);
#142=AXIS2_PLACEMENT_3D('placement',#188,#156,#157);
#143=AXIS2_PLACEMENT_3D('',#189,#158,#159);
#144=AXIS2_PLACEMENT_3D('',#262,#161,#162);
#145=AXIS2_PLACEMENT_3D('',#263,#163,#164);
#146=AXIS2_PLACEMENT_3D('',#265,#165,#166);
#147=AXIS2_PLACEMENT_3D('',#268,#168,#169);
#148=AXIS2_PLACEMENT_3D('',#269,#170,#171);
#149=AXIS2_PLACEMENT_3D('',#271,#172,#173);
#150=AXIS2_PLACEMENT_3D('',#343,#175,#176);
#151=AXIS2_PLACEMENT_3D('',#344,#177,#178);
#152=AXIS2_PLACEMENT_3D('',#346,#179,#180);
#153=AXIS2_PLACEMENT_3D('',#347,#181,#182);
#154=AXIS2_PLACEMENT_3D('',#349,#183,#184);
#155=AXIS2_PLACEMENT_3D('',#351,#186,#187);
#156=DIRECTION('axis',(0.,0.,1.));
#157=DIRECTION('refdir',(1.,0.,0.));
#158=DIRECTION('center_axis',(0.,0.,1.));
#159=DIRECTION('ref_axis',(1.,0.,0.));
#160=DIRECTION('',(0.,0.,1.));
#161=DIRECTION('center_axis',(0.,0.,-1.));
#162=DIRECTION('ref_axis',(1.,0.,0.));
#163=DIRECTION('center_axis',(1.,0.,0.));
#164=DIRECTION('ref_axis',(0.,1.,0.));
#165=DIRECTION('center_axis',(1.,0.,0.));
#166=DIRECTION('ref_axis',(0.,1.,0.));
#167=DIRECTION('',(1.,0.,0.));
#168=DIRECTION('center_axis',(-1.,0.,0.));
#169=DIRECTION('ref_axis',(0.,1.,0.));
#170=DIRECTION('center_axis',(0.,0.,1.));
#171=DIRECTION('ref_axis',(1.,0.,0.));
#172=DIRECTION('center_axis',(0.,0.,1.));
#173=DIRECTION('ref_axis',(1.,0.,0.));
#174=DIRECTION('',(0.,0.,-1.));
#175=DIRECTION('center_axis',(0.,0.,1.));
#176=DIRECTION('ref_axis',(1.,0.,0.));
#177=DIRECTION('center_axis',(1.,0.,0.));
#178=DIRECTION('ref_axis',(0.,0.,-1.));
#179=DIRECTION('center_axis',(-1.,0.,0.));
#180=DIRECTION('ref_axis',(0.,1.,0.));
#181=DIRECTION('center_axis',(1.,0.,0.));
#182=DIRECTION('ref_axis',(0.,1.,0.));
#183=DIRECTION('center_axis',(1.,0.,0.));
#184=DIRECTION('ref_axis',(0.,1.,0.));
#185=DIRECTION('',(-1.,0.,0.));
#186=DIRECTION('center_axis',(1.,0.,0.));
#187=DIRECTION('ref_axis',(0.,0.,-1.));
#188=CARTESIAN_POINT('',(0.,0.,0.));
#189=CARTESIAN_POINT('Origin',(0.,0.,0.));
#190=CARTESIAN_POINT('',(-5.55111512312578E-16,-66.9,43.1340932442076));
#191=CARTESIAN_POINT('',(-66.9,8.99560067665307E-16,79.6));
#192=CARTESIAN_POINT('Ctrl Pts',(-5.55111512312578E-16,-66.9,43.1340932442076));
#193=CARTESIAN_POINT('Ctrl Pts',(4.66160595188662,-66.9,43.1340932442076));
#194=CARTESIAN_POINT('Ctrl Pts',(9.21393407607801,-66.4135901580028,43.9085562468201));
#195=CARTESIAN_POINT('Ctrl Pts',(17.9827625835896,-64.5932023788807,46.5450799940628));
#196=CARTESIAN_POINT('Ctrl Pts',(22.2036629244748,-63.2585432758863,48.3920130056794));
#197=CARTESIAN_POINT('Ctrl Pts',(30.2317169153123,-59.8388610064839,52.5617836487489));
#198=CARTESIAN_POINT('Ctrl Pts',(34.0406354476772,-57.7506512550708,54.8834841522518));
#199=CARTESIAN_POINT('Ctrl Pts',(41.1175626958037,-52.9457138696488,59.5322260809794));
#200=CARTESIAN_POINT('Ctrl Pts',(44.3839549475722,-50.2269323751879,61.8596050579379));
#201=CARTESIAN_POINT('Ctrl Pts',(50.1010854159736,-44.5098019067864,66.0841937862969));
#202=CARTESIAN_POINT('Ctrl Pts',(52.7854561852634,-41.3224999476637,68.1516431109792));
#203=CARTESIAN_POINT('Ctrl Pts',(57.6119234685184,-34.2741836143734,71.9546787821504));
#204=CARTESIAN_POINT('Ctrl Pts',(59.754022461277,-30.4125310324877,73.6890790479359));
#205=CARTESIAN_POINT('Ctrl Pts',(63.2596011775604,-22.2190982339821,76.559220778576));
#206=CARTESIAN_POINT('Ctrl Pts',(64.6261686099149,-17.877531658337,77.6971119476758));
#207=CARTESIAN_POINT('Ctrl Pts',(66.4467772619122,-8.99853316672841,79.2178877799439));
#208=CARTESIAN_POINT('Ctrl Pts',(66.9,-4.46080115968352,79.6));
#209=CARTESIAN_POINT('Ctrl Pts',(66.9,4.46080115968352,79.6));
#210=CARTESIAN_POINT('Ctrl Pts',(66.4467772619122,8.99853316672841,79.2178877799439));
#211=CARTESIAN_POINT('Ctrl Pts',(64.6261686099149,17.877531658337,77.6971119476758));
#212=CARTESIAN_POINT('Ctrl Pts',(63.2596011775604,22.2190982339821,76.559220778576));
#213=CARTESIAN_POINT('Ctrl Pts',(59.754022461277,30.4125310324876,73.6890790479359));
#214=CARTESIAN_POINT('Ctrl Pts',(57.6119234685184,34.2741836143734,71.9546787821504));
#215=CARTESIAN_POINT('Ctrl Pts',(52.7854561852634,41.3224999476637,68.1516431109792));
#216=CARTESIAN_POINT('Ctrl Pts',(50.1010854159736,44.5098019067864,66.0841937862969));
#217=CARTESIAN_POINT('Ctrl Pts',(44.3839549475722,50.2269323751879,61.8596050579379));
#218=CARTESIAN_POINT('Ctrl Pts',(41.1175626958037,52.9457138696488,59.5322260809794));
#219=CARTESIAN_POINT('Ctrl Pts',(34.0406354476772,57.7506512550709,54.8834841522518));
#220=CARTESIAN_POINT('Ctrl Pts',(30.2317169153123,59.8388610064839,52.5617836487489));
#221=CARTESIAN_POINT('Ctrl Pts',(22.2036629244748,63.2585432758863,48.3920130056794));
#222=CARTESIAN_POINT('Ctrl Pts',(17.9827625835896,64.5932023788807,46.5450799940628));
#223=CARTESIAN_POINT('Ctrl Pts',(9.21393407607801,66.4135901580028,43.9085562468201));
#224=CARTESIAN_POINT('Ctrl Pts',(4.66160595188662,66.9,43.1340932442076));
#225=CARTESIAN_POINT('Ctrl Pts',(-4.66160595188663,66.9,43.1340932442076));
#226=CARTESIAN_POINT('Ctrl Pts',(-9.21393407607801,66.4135901580028,43.9085562468201));
#227=CARTESIAN_POINT('Ctrl Pts',(-17.9827625835896,64.5932023788807,46.5450799940628));
#228=CARTESIAN_POINT('Ctrl Pts',(-22.2036629244748,63.2585432758863,48.3920130056794));
#229=CARTESIAN_POINT('Ctrl Pts',(-30.2317169153123,59.8388610064839,52.5617836487489));
#230=CARTESIAN_POINT('Ctrl Pts',(-34.0406354476772,57.7506512550709,54.8834841522518));
#231=CARTESIAN_POINT('Ctrl Pts',(-41.1175626958037,52.9457138696489,59.5322260809794));
#232=CARTESIAN_POINT('Ctrl Pts',(-44.3839549475722,50.2269323751879,61.8596050579379));
#233=CARTESIAN_POINT('Ctrl Pts',(-50.1010854159736,44.5098019067864,66.0841937862969));
#234=CARTESIAN_POINT('Ctrl Pts',(-52.7854561852634,41.3224999476637,68.1516431109792));
#235=CARTESIAN_POINT('Ctrl Pts',(-57.6119234685184,34.2741836143734,71.9546787821504));
#236=CARTESIAN_POINT('Ctrl Pts',(-59.754022461277,30.4125310324876,73.6890790479359));
#237=CARTESIAN_POINT('Ctrl Pts',(-63.2596011775604,22.2190982339821,76.559220778576));
#238=CARTESIAN_POINT('Ctrl Pts',(-64.6261686099149,17.877531658337,77.6971119476758));
#239=CARTESIAN_POINT('Ctrl Pts',(-66.4467772619122,8.99853316672842,79.2178877799439));
#240=CARTESIAN_POINT('Ctrl Pts',(-66.9,4.46080115968353,79.6));
#241=CARTESIAN_POINT('Ctrl Pts',(-66.9,7.7715611723761E-15,79.6));
#242=CARTESIAN_POINT('Ctrl Pts',(-66.9,9.99200722162641E-15,79.6));
#243=CARTESIAN_POINT('Ctrl Pts',(-66.9,-4.46080115968353,79.6));
#244=CARTESIAN_POINT('Ctrl Pts',(-66.4467772619121,-8.99853316672844,79.2178877799439));
#245=CARTESIAN_POINT('Ctrl Pts',(-64.6261686099148,-17.877531658337,77.6971119476758));
#246=CARTESIAN_POINT('Ctrl Pts',(-63.2596011775603,-22.2190982339821,76.559220778576));
#247=CARTESIAN_POINT('Ctrl Pts',(-59.754022461277,-30.4125310324877,73.6890790479359));
#248=CARTESIAN_POINT('Ctrl Pts',(-57.6119234685184,-34.2741836143734,71.9546787821504));
#249=CARTESIAN_POINT('Ctrl Pts',(-52.7854561852634,-41.3224999476637,68.1516431109791));
#250=CARTESIAN_POINT('Ctrl Pts',(-50.1010854159737,-44.5098019067864,66.0841937862969));
#251=CARTESIAN_POINT('Ctrl Pts',(-44.3839549475722,-50.2269323751879,61.8596050579379));
#252=CARTESIAN_POINT('Ctrl Pts',(-41.1175626958037,-52.9457138696489,59.5322260809794));
#253=CARTESIAN_POINT('Ctrl Pts',(-34.0406354476772,-57.7506512550709,54.8834841522518));
#254=CARTESIAN_POINT('Ctrl Pts',(-30.2317169153123,-59.8388610064839,52.5617836487489));
#255=CARTESIAN_POINT('Ctrl Pts',(-22.2036629244748,-63.2585432758863,48.3920130056794));
#256=CARTESIAN_POINT('Ctrl Pts',(-17.9827625835896,-64.5932023788807,46.5450799940628));
#257=CARTESIAN_POINT('Ctrl Pts',(-9.21393407607803,-66.4135901580028,43.9085562468201));
#258=CARTESIAN_POINT('Ctrl Pts',(-4.66160595188664,-66.9,43.1340932442076));
#259=CARTESIAN_POINT('Ctrl Pts',(-1.11022302462516E-15,-66.9,43.1340932442076));
#260=CARTESIAN_POINT('',(-66.9,8.19288708629579E-15,170.));
#261=CARTESIAN_POINT('',(-66.9,-8.19288708629579E-15,0.));
#262=CARTESIAN_POINT('Origin',(0.,0.,170.));
#263=CARTESIAN_POINT('Origin',(0.,0.,0.));
#264=CARTESIAN_POINT('',(-170.,-79.6,-9.74818852121293E-15));
#265=CARTESIAN_POINT('Origin',(-170.,0.,0.));
#266=CARTESIAN_POINT('',(170.,-79.6,9.74818852121293E-15));
#267=CARTESIAN_POINT('',(0.,-79.6,-9.74818852121293E-15));
#268=CARTESIAN_POINT('Origin',(170.,0.,0.));
#269=CARTESIAN_POINT('Origin',(0.,0.,0.));
#270=CARTESIAN_POINT('',(-69.9,-8.56028112604E-15,170.));
#271=CARTESIAN_POINT('Origin',(0.,0.,170.));
#272=CARTESIAN_POINT('',(-69.9,-9.83125568614578E-15,82.6));
#273=CARTESIAN_POINT('',(-69.9,-8.56028112604E-15,0.));
#274=CARTESIAN_POINT('',(0.,-69.9,44.0085219020135));
#275=CARTESIAN_POINT('Ctrl Pts',(0.,-69.9,44.0085219020135));
#276=CARTESIAN_POINT('Ctrl Pts',(-4.8863638687521,-69.9,44.0085219020135));
#277=CARTESIAN_POINT('Ctrl Pts',(-9.64467424527035,-69.3892050523824,44.8417969351813));
#278=CARTESIAN_POINT('Ctrl Pts',(-18.8023845231131,-67.4859382258189,47.6581228084155));
#279=CARTESIAN_POINT('Ctrl Pts',(-23.2065394887112,-66.0924395277578,49.6249925718459));
#280=CARTESIAN_POINT('Ctrl Pts',(-31.5868655383191,-62.5221893662537,54.0539215546841));
#281=CARTESIAN_POINT('Ctrl Pts',(-35.563965172963,-60.3421645035113,56.5149231502693));
#282=CARTESIAN_POINT('Ctrl Pts',(-42.9571712916003,-55.3231765815061,61.4366299199916));
#283=CARTESIAN_POINT('Ctrl Pts',(-46.371470438367,-52.4820575715124,63.8978510291259));
#284=CARTESIAN_POINT('Ctrl Pts',(-52.3440035911983,-46.509524418681,68.358477306944));
#285=CARTESIAN_POINT('Ctrl Pts',(-55.1467687739639,-43.1826212657809,70.5377741372258));
#286=CARTESIAN_POINT('Ctrl Pts',(-60.188174419895,-35.823017004341,74.5454747977585));
#287=CARTESIAN_POINT('Ctrl Pts',(-62.4268028212806,-31.7896460111318,76.3726635275079));
#288=CARTESIAN_POINT('Ctrl Pts',(-66.0915084532226,-23.2292931566729,79.3962561350808));
#289=CARTESIAN_POINT('Ctrl Pts',(-67.5208240893916,-18.692050727988,80.5949537034714));
#290=CARTESIAN_POINT('Ctrl Pts',(-69.4254981484169,-9.41034820054328,82.1972303056562));
#291=CARTESIAN_POINT('Ctrl Pts',(-69.9,-4.66557265290156,82.6));
#292=CARTESIAN_POINT('Ctrl Pts',(-69.9,-8.88178419700125E-15,82.6));
#293=CARTESIAN_POINT('Ctrl Pts',(-69.9,-1.11022302462516E-14,82.6));
#294=CARTESIAN_POINT('Ctrl Pts',(-69.9,4.66557265290154,82.6));
#295=CARTESIAN_POINT('Ctrl Pts',(-69.4254981484169,9.41034820054326,82.1972303056562));
#296=CARTESIAN_POINT('Ctrl Pts',(-67.5208240893916,18.692050727988,80.5949537034714));
#297=CARTESIAN_POINT('Ctrl Pts',(-66.0915084532226,23.2292931566729,79.3962561350808));
#298=CARTESIAN_POINT('Ctrl Pts',(-62.4268028212806,31.7896460111318,76.3726635275079));
#299=CARTESIAN_POINT('Ctrl Pts',(-60.188174419895,35.823017004341,74.5454747977585));
#300=CARTESIAN_POINT('Ctrl Pts',(-55.1467687739639,43.1826212657809,70.5377741372258));
#301=CARTESIAN_POINT('Ctrl Pts',(-52.3440035911983,46.509524418681,68.358477306944));
#302=CARTESIAN_POINT('Ctrl Pts',(-46.371470438367,52.4820575715124,63.8978510291259));
#303=CARTESIAN_POINT('Ctrl Pts',(-42.9571712916003,55.3231765815061,61.4366299199916));
#304=CARTESIAN_POINT('Ctrl Pts',(-35.5639651729631,60.3421645035113,56.5149231502693));
#305=CARTESIAN_POINT('Ctrl Pts',(-31.5868655383191,62.5221893662537,54.0539215546841));
#306=CARTESIAN_POINT('Ctrl Pts',(-23.2065394887112,66.0924395277578,49.6249925718459));
#307=CARTESIAN_POINT('Ctrl Pts',(-18.8023845231132,67.4859382258189,47.6581228084155));
#308=CARTESIAN_POINT('Ctrl Pts',(-9.64467424527036,69.3892050523824,44.8417969351813));
#309=CARTESIAN_POINT('Ctrl Pts',(-4.88636386875211,69.9,44.0085219020135));
#310=CARTESIAN_POINT('Ctrl Pts',(4.88636386875209,69.9,44.0085219020134));
#311=CARTESIAN_POINT('Ctrl Pts',(9.64467424527034,69.3892050523825,44.8417969351813));
#312=CARTESIAN_POINT('Ctrl Pts',(18.8023845231131,67.4859382258189,47.6581228084155));
#313=CARTESIAN_POINT('Ctrl Pts',(23.2065394887112,66.0924395277578,49.6249925718459));
#314=CARTESIAN_POINT('Ctrl Pts',(31.5868655383191,62.5221893662538,54.0539215546841));
#315=CARTESIAN_POINT('Ctrl Pts',(35.563965172963,60.3421645035114,56.5149231502693));
#316=CARTESIAN_POINT('Ctrl Pts',(42.9571712916003,55.3231765815062,61.4366299199915));
#317=CARTESIAN_POINT('Ctrl Pts',(46.3714704383669,52.4820575715124,63.8978510291258));
#318=CARTESIAN_POINT('Ctrl Pts',(52.3440035911983,46.5095244186811,68.358477306944));
#319=CARTESIAN_POINT('Ctrl Pts',(55.1467687739638,43.182621265781,70.5377741372258));
#320=CARTESIAN_POINT('Ctrl Pts',(60.1881744198949,35.823017004341,74.5454747977585));
#321=CARTESIAN_POINT('Ctrl Pts',(62.4268028212806,31.7896460111318,76.3726635275079));
#322=CARTESIAN_POINT('Ctrl Pts',(66.0915084532226,23.2292931566729,79.3962561350808));
#323=CARTESIAN_POINT('Ctrl Pts',(67.5208240893916,18.692050727988,80.5949537034714));
#324=CARTESIAN_POINT('Ctrl Pts',(69.4254981484169,9.41034820054326,82.1972303056562));
#325=CARTESIAN_POINT('Ctrl Pts',(69.9,4.66557265290155,82.6));
#326=CARTESIAN_POINT('Ctrl Pts',(69.9,-4.66557265290152,82.6));
#327=CARTESIAN_POINT('Ctrl Pts',(69.425498148417,-9.41034820054323,82.1972303056562));
#328=CARTESIAN_POINT('Ctrl Pts',(67.5208240893916,-18.6920507279879,80.5949537034714));
#329=CARTESIAN_POINT('Ctrl Pts',(66.0915084532226,-23.2292931566729,79.3962561350808));
#330=CARTESIAN_POINT('Ctrl Pts',(62.4268028212806,-31.7896460111318,76.3726635275079));
#331=CARTESIAN_POINT('Ctrl Pts',(60.188174419895,-35.823017004341,74.5454747977586));
#332=CARTESIAN_POINT('Ctrl Pts',(55.1467687739639,-43.1826212657809,70.5377741372258));
#333=CARTESIAN_POINT('Ctrl Pts',(52.3440035911983,-46.509524418681,68.358477306944));
#334=CARTESIAN_POINT('Ctrl Pts',(46.371470438367,-52.4820575715124,63.8978510291259));
#335=CARTESIAN_POINT('Ctrl Pts',(42.9571712916003,-55.3231765815061,61.4366299199916));
#336=CARTESIAN_POINT('Ctrl Pts',(35.5639651729631,-60.3421645035113,56.5149231502693));
#337=CARTESIAN_POINT('Ctrl Pts',(31.5868655383192,-62.5221893662537,54.0539215546841));
#338=CARTESIAN_POINT('Ctrl Pts',(23.2065394887112,-66.0924395277578,49.6249925718459));
#339=CARTESIAN_POINT('Ctrl Pts',(18.8023845231131,-67.4859382258189,47.6581228084155));
#340=CARTESIAN_POINT('Ctrl Pts',(9.64467424527034,-69.3892050523825,44.8417969351813));
#341=CARTESIAN_POINT('Ctrl Pts',(4.88636386875209,-69.9,44.0085219020135));
#342=CARTESIAN_POINT('Ctrl Pts',(1.66533453693773E-15,-69.9,44.0085219020135));
#343=CARTESIAN_POINT('Origin',(0.,0.,170.));
#344=CARTESIAN_POINT('Origin',(-170.,0.,0.));
#345=CARTESIAN_POINT('',(-170.,-82.6,-1.01155825609571E-14));
#346=CARTESIAN_POINT('Origin',(-170.,0.,0.));
#347=CARTESIAN_POINT('Origin',(0.,0.,0.));
#348=CARTESIAN_POINT('',(170.,-82.6,-1.01155825609571E-14));
#349=CARTESIAN_POINT('Origin',(170.,0.,0.));
#350=CARTESIAN_POINT('',(0.,-82.6,-1.01155825609571E-14));
#351=CARTESIAN_POINT('Origin',(170.,0.,0.));
#352=UNCERTAINTY_MEASURE_WITH_UNIT(LENGTH_MEASURE(0.01),#356,
'DISTANCE_ACCURACY_VALUE',
'Maximum model space distance between geometric entities at asserted c
onnectivities');
#353=UNCERTAINTY_MEASURE_WITH_UNIT(LENGTH_MEASURE(0.01),#356,
'DISTANCE_ACCURACY_VALUE',
'Maximum model space distance between geometric entities at asserted c
onnectivities');
#354=(
GEOMETRIC_REPRESENTATION_CONTEXT(3)
GLOBAL_UNCERTAINTY_ASSIGNED_CONTEXT((#352))
GLOBAL_UNIT_ASSIGNED_CONTEXT((#356,#358,#359))
REPRESENTATION_CONTEXT('','3D')
);
#355=(
GEOMETRIC_REPRESENTATION_CONTEXT(3)
GLOBAL_UNCERTAINTY_ASSIGNED_CONTEXT((#353))
GLOBAL_UNIT_ASSIGNED_CONTEXT((#356,#358,#359))
REPRESENTATION_CONTEXT('','3D')
);
#356=(
LENGTH_UNIT()
NAMED_UNIT(*)
SI_UNIT(.MILLI.,.METRE.)
);
#357=(
LENGTH_UNIT()
NAMED_UNIT(*)
SI_UNIT(.CENTI.,.METRE.)
);
#358=(
NAMED_UNIT(*)
PLANE_ANGLE_UNIT()
SI_UNIT($,.RADIAN.)
);
#359=(
NAMED_UNIT(*)
SI_UNIT($,.STERADIAN.)
SOLID_ANGLE_UNIT()
);
#360=SHAPE_DEFINITION_REPRESENTATION(#361,#362);
#361=PRODUCT_DEFINITION_SHAPE('',$,#364);
#362=SHAPE_REPRESENTATION('',(#142),#354);
#363=PRODUCT_DEFINITION_CONTEXT('part definition',#368,'design');
#364=PRODUCT_DEFINITION('D8(R) 60\X\D750','D8(R) 60\X\D750',#365,#363);
#365=PRODUCT_DEFINITION_FORMATION('',$,#370);
#366=PRODUCT_RELATED_PRODUCT_CATEGORY('D8(R) 60\X\D750','D8(R) 60\X\D7
50',(#370));
#367=APPLICATION_PROTOCOL_DEFINITION('international standard',
'automotive_design',2009,#368);
#368=APPLICATION_CONTEXT(
'Core Data for Automotive Mechanical Design Process');
#369=PRODUCT_CONTEXT('part definition',#368,'mechanical');
#370=PRODUCT('D8(R) 60\X\D750','D8(R) 60\X\D750',$,(#369));
#371=PRESENTATION_STYLE_ASSIGNMENT((#372));
#372=SURFACE_STYLE_USAGE(.BOTH.,#375);
#373=SURFACE_STYLE_RENDERING_WITH_PROPERTIES($,#379,(#374));
#374=SURFACE_STYLE_TRANSPARENT(0.);
#375=SURFACE_SIDE_STYLE('',(#376,#373));
#376=SURFACE_STYLE_FILL_AREA(#377);
#377=FILL_AREA_STYLE('',(#378));
#378=FILL_AREA_STYLE_COLOUR('',#379);
#379=COLOUR_RGB('',0.749019607843137,0.749019607843137,0.749019607843137);
ENDSEC;
END-ISO-10303-21;
