ISO-10303-21;
HEADER;
/* Generated by software containing ST-Developer
 * from STEP Tools, Inc. (www.steptools.com) 
 */

FILE_DESCRIPTION(
/* description */ (''),
/* implementation_level */ '2;1');

FILE_NAME(
/* name */ 
'\\\\Tske00\\w\\Work\\TOSTE\\\X2\7D99624B\X0\\\02_\X2\6EB663A5\X0\\\\X2\6EB663A5752830C130FC30BA\X0\\\
D8(R)\\D8(R) 60\X\D745.stp',
/* time_stamp */ '2022-04-12T17:56:53+09:00',
/* author */ ('3dcad-eng'),
/* organization */ (''),
/* preprocessor_version */ 'ST-DEVELOPER v18.1',
/* originating_system */ 'Autodesk Inventor 2022',
/* authorisation */ '');

FILE_SCHEMA (('AUTOMOTIVE_DESIGN { 1 0 10303 214 3 1 1 }'));
ENDSEC;

DATA;
#10=MECHANICAL_DESIGN_GEOMETRIC_PRESENTATION_REPRESENTATION('',(#13),#355);
#11=SHAPE_REPRESENTATION_RELATIONSHIP('SRR','None',#362,#12);
#12=ADVANCED_BREP_SHAPE_REPRESENTATION('',(#14),#354);
#13=STYLED_ITEM('',(#371),#14);
#14=MANIFOLD_SOLID_BREP('\X2\30BD30EA30C330C9\X0\1',#123);
#15=PLANE('',#150);
#16=PLANE('',#151);
#17=PLANE('',#155);
#18=FACE_BOUND('',#32,.T.);
#19=FACE_BOUND('',#35,.T.);
#20=FACE_BOUND('',#37,.T.);
#21=FACE_BOUND('',#39,.T.);
#22=FACE_BOUND('',#41,.T.);
#23=FACE_OUTER_BOUND('',#30,.T.);
#24=FACE_OUTER_BOUND('',#31,.T.);
#25=FACE_OUTER_BOUND('',#33,.T.);
#26=FACE_OUTER_BOUND('',#34,.T.);
#27=FACE_OUTER_BOUND('',#36,.T.);
#28=FACE_OUTER_BOUND('',#38,.T.);
#29=FACE_OUTER_BOUND('',#40,.T.);
#30=EDGE_LOOP('',(#84,#85,#86,#87,#88));
#31=EDGE_LOOP('',(#89,#90,#91,#92));
#32=EDGE_LOOP('',(#93,#94));
#33=EDGE_LOOP('',(#95,#96,#97,#98,#99));
#34=EDGE_LOOP('',(#100));
#35=EDGE_LOOP('',(#101));
#36=EDGE_LOOP('',(#102));
#37=EDGE_LOOP('',(#103));
#38=EDGE_LOOP('',(#104,#105,#106,#107));
#39=EDGE_LOOP('',(#108,#109));
#40=EDGE_LOOP('',(#110));
#41=EDGE_LOOP('',(#111));
#42=CIRCLE('',#144,54.15);
#43=CIRCLE('',#146,79.6);
#44=CIRCLE('',#147,79.6);
#45=CIRCLE('',#149,57.15);
#46=CIRCLE('',#152,82.6);
#47=CIRCLE('',#154,82.6);
#48=LINE('',#261,#52);
#49=LINE('',#267,#53);
#50=LINE('',#273,#54);
#51=LINE('',#350,#55);
#52=VECTOR('',#160,54.15);
#53=VECTOR('',#167,79.6);
#54=VECTOR('',#174,57.15);
#55=VECTOR('',#185,82.6);
#56=B_SPLINE_CURVE_WITH_KNOTS('',3,(#192,#193,#194,#195,#196,#197,#198,
#199,#200,#201,#202,#203,#204,#205,#206,#207,#208,#209,#210,#211,#212,#213,
#214,#215,#216,#217,#218,#219,#220,#221,#222,#223,#224,#225,#226,#227,#228,
#229,#230,#231,#232,#233,#234,#235,#236,#237,#238,#239,#240,#241),
 .UNSPECIFIED.,.F.,.F.,(4,2,2,2,2,2,2,2,2,2,2,2,2,2,2,2,2,2,2,2,2,2,2,2,
4),(0.,1.07126430656566,2.14252861313133,3.21379291969699,4.28505722626265,
5.34321004071941,6.40136285517616,7.45951566963291,8.51766848408966,9.57582129854642,
10.6339741130032,11.6921269274599,12.7502797419167,13.8215440484823,14.892808355048,
15.9640726616137,17.0353369681793,18.106601274745,19.1778655813107,20.2491298878763,
21.320394194442,22.3785470088987,23.4366998233555,24.4948526378122,25.553005452269),
 .UNSPECIFIED.);
#57=B_SPLINE_CURVE_WITH_KNOTS('',3,(#242,#243,#244,#245,#246,#247,#248,
#249,#250,#251,#252,#253,#254,#255,#256,#257,#258,#259),.UNSPECIFIED.,.F.,
 .F.,(4,2,2,2,2,2,2,2,4),(25.553005452269,26.6111582667257,27.6693110811825,
28.7274638956392,29.785616710096,30.8568810166617,31.9281453232273,32.999409629793,
34.0706739363587),.UNSPECIFIED.);
#58=B_SPLINE_CURVE_WITH_KNOTS('',3,(#275,#276,#277,#278,#279,#280,#281,
#282,#283,#284,#285,#286,#287,#288,#289,#290,#291,#292),.UNSPECIFIED.,.F.,
 .F.,(4,2,2,2,2,2,2,2,4),(0.,1.13356247995535,2.2671249599107,3.40068743986605,
4.5342499198214,5.65262296757334,6.77099601532529,7.88936906307723,9.00774211082917),
 .UNSPECIFIED.);
#59=B_SPLINE_CURVE_WITH_KNOTS('',3,(#293,#294,#295,#296,#297,#298,#299,
#300,#301,#302,#303,#304,#305,#306,#307,#308,#309,#310,#311,#312,#313,#314,
#315,#316,#317,#318,#319,#320,#321,#322,#323,#324,#325,#326,#327,#328,#329,
#330,#331,#332,#333,#334,#335,#336,#337,#338,#339,#340,#341,#342),
 .UNSPECIFIED.,.F.,.F.,(4,2,2,2,2,2,2,2,2,2,2,2,2,2,2,2,2,2,2,2,2,2,2,2,
4),(9.00774211082917,10.1261151585811,11.2444882063331,12.362861254085,
13.4812343018369,14.6147967817923,15.7483592617476,16.881921741703,18.0154842216583,
19.1490467016137,20.282609181569,21.4161716615244,22.5497341414797,23.6681071892317,
24.7864802369836,25.9048532847356,27.0232263324875,28.1415993802395,29.2599724279914,
30.3783454757433,31.4967185234953,32.6302810034506,33.763843483406,34.8974059633613,
36.0309684433167),.UNSPECIFIED.);
#60=VERTEX_POINT('',#190);
#61=VERTEX_POINT('',#191);
#62=VERTEX_POINT('',#260);
#63=VERTEX_POINT('',#264);
#64=VERTEX_POINT('',#266);
#65=VERTEX_POINT('',#270);
#66=VERTEX_POINT('',#272);
#67=VERTEX_POINT('',#274);
#68=VERTEX_POINT('',#345);
#69=VERTEX_POINT('',#348);
#70=EDGE_CURVE('',#60,#61,#56,.T.);
#71=EDGE_CURVE('',#61,#60,#57,.T.);
#72=EDGE_CURVE('',#61,#62,#48,.T.);
#73=EDGE_CURVE('',#62,#62,#42,.T.);
#74=EDGE_CURVE('',#63,#63,#43,.T.);
#75=EDGE_CURVE('',#63,#64,#49,.T.);
#76=EDGE_CURVE('',#64,#64,#44,.T.);
#77=EDGE_CURVE('',#65,#65,#45,.T.);
#78=EDGE_CURVE('',#65,#66,#50,.T.);
#79=EDGE_CURVE('',#67,#66,#58,.T.);
#80=EDGE_CURVE('',#66,#67,#59,.T.);
#81=EDGE_CURVE('',#68,#68,#46,.T.);
#82=EDGE_CURVE('',#69,#69,#47,.T.);
#83=EDGE_CURVE('',#69,#68,#51,.T.);
#84=ORIENTED_EDGE('',*,*,#70,.F.);
#85=ORIENTED_EDGE('',*,*,#71,.F.);
#86=ORIENTED_EDGE('',*,*,#72,.T.);
#87=ORIENTED_EDGE('',*,*,#73,.F.);
#88=ORIENTED_EDGE('',*,*,#72,.F.);
#89=ORIENTED_EDGE('',*,*,#74,.F.);
#90=ORIENTED_EDGE('',*,*,#75,.T.);
#91=ORIENTED_EDGE('',*,*,#76,.F.);
#92=ORIENTED_EDGE('',*,*,#75,.F.);
#93=ORIENTED_EDGE('',*,*,#70,.T.);
#94=ORIENTED_EDGE('',*,*,#71,.T.);
#95=ORIENTED_EDGE('',*,*,#77,.F.);
#96=ORIENTED_EDGE('',*,*,#78,.T.);
#97=ORIENTED_EDGE('',*,*,#79,.F.);
#98=ORIENTED_EDGE('',*,*,#80,.F.);
#99=ORIENTED_EDGE('',*,*,#78,.F.);
#100=ORIENTED_EDGE('',*,*,#77,.T.);
#101=ORIENTED_EDGE('',*,*,#73,.T.);
#102=ORIENTED_EDGE('',*,*,#81,.T.);
#103=ORIENTED_EDGE('',*,*,#74,.T.);
#104=ORIENTED_EDGE('',*,*,#82,.F.);
#105=ORIENTED_EDGE('',*,*,#83,.T.);
#106=ORIENTED_EDGE('',*,*,#81,.F.);
#107=ORIENTED_EDGE('',*,*,#83,.F.);
#108=ORIENTED_EDGE('',*,*,#79,.T.);
#109=ORIENTED_EDGE('',*,*,#80,.T.);
#110=ORIENTED_EDGE('',*,*,#82,.T.);
#111=ORIENTED_EDGE('',*,*,#76,.T.);
#112=CYLINDRICAL_SURFACE('',#143,54.15);
#113=CYLINDRICAL_SURFACE('',#145,79.6);
#114=CYLINDRICAL_SURFACE('',#148,57.15);
#115=CYLINDRICAL_SURFACE('',#153,82.6);
#116=ADVANCED_FACE('',(#23),#112,.F.);
#117=ADVANCED_FACE('',(#24,#18),#113,.F.);
#118=ADVANCED_FACE('',(#25),#114,.T.);
#119=ADVANCED_FACE('',(#26,#19),#15,.T.);
#120=ADVANCED_FACE('',(#27,#20),#16,.F.);
#121=ADVANCED_FACE('',(#28,#21),#115,.T.);
#122=ADVANCED_FACE('',(#29,#22),#17,.T.);
#123=CLOSED_SHELL('',(#116,#117,#118,#119,#120,#121,#122));
#124=DERIVED_UNIT_ELEMENT(#126,1.);
#125=DERIVED_UNIT_ELEMENT(#357,-3.);
#126=(
MASS_UNIT()
NAMED_UNIT(*)
SI_UNIT($,.GRAM.)
);
#127=DERIVED_UNIT((#124,#125));
#128=MEASURE_REPRESENTATION_ITEM('density measure',
POSITIVE_RATIO_MEASURE(1.),#127);
#129=PROPERTY_DEFINITION_REPRESENTATION(#134,#131);
#130=PROPERTY_DEFINITION_REPRESENTATION(#135,#132);
#131=REPRESENTATION('material name',(#133),#354);
#132=REPRESENTATION('density',(#128),#354);
#133=DESCRIPTIVE_REPRESENTATION_ITEM('\X2\4E00822C\X0\','\X2\4E00822C\X0\');
#134=PROPERTY_DEFINITION('material property','material name',#364);
#135=PROPERTY_DEFINITION('material property','density of part',#364);
#136=DATE_TIME_ROLE('creation_date');
#137=APPLIED_DATE_AND_TIME_ASSIGNMENT(#138,#136,(#364));
#138=DATE_AND_TIME(#139,#140);
#139=CALENDAR_DATE(2022,31,3);
#140=LOCAL_TIME(0,0,0.,#141);
#141=COORDINATED_UNIVERSAL_TIME_OFFSET(0,0,.BEHIND.);
#142=AXIS2_PLACEMENT_3D('placement',#188,#156,#157);
#143=AXIS2_PLACEMENT_3D('',#189,#158,#159);
#144=AXIS2_PLACEMENT_3D('',#262,#161,#162);
#145=AXIS2_PLACEMENT_3D('',#263,#163,#164);
#146=AXIS2_PLACEMENT_3D('',#265,#165,#166);
#147=AXIS2_PLACEMENT_3D('',#268,#168,#169);
#148=AXIS2_PLACEMENT_3D('',#269,#170,#171);
#149=AXIS2_PLACEMENT_3D('',#271,#172,#173);
#150=AXIS2_PLACEMENT_3D('',#343,#175,#176);
#151=AXIS2_PLACEMENT_3D('',#344,#177,#178);
#152=AXIS2_PLACEMENT_3D('',#346,#179,#180);
#153=AXIS2_PLACEMENT_3D('',#347,#181,#182);
#154=AXIS2_PLACEMENT_3D('',#349,#183,#184);
#155=AXIS2_PLACEMENT_3D('',#351,#186,#187);
#156=DIRECTION('axis',(0.,0.,1.));
#157=DIRECTION('refdir',(1.,0.,0.));
#158=DIRECTION('center_axis',(0.,0.,1.));
#159=DIRECTION('ref_axis',(1.,0.,0.));
#160=DIRECTION('',(0.,0.,1.));
#161=DIRECTION('center_axis',(0.,0.,-1.));
#162=DIRECTION('ref_axis',(1.,0.,0.));
#163=DIRECTION('center_axis',(1.,0.,0.));
#164=DIRECTION('ref_axis',(0.,1.,0.));
#165=DIRECTION('center_axis',(1.,0.,0.));
#166=DIRECTION('ref_axis',(0.,1.,0.));
#167=DIRECTION('',(1.,0.,0.));
#168=DIRECTION('center_axis',(-1.,0.,0.));
#169=DIRECTION('ref_axis',(0.,1.,0.));
#170=DIRECTION('center_axis',(0.,0.,1.));
#171=DIRECTION('ref_axis',(1.,0.,0.));
#172=DIRECTION('center_axis',(0.,0.,1.));
#173=DIRECTION('ref_axis',(1.,0.,0.));
#174=DIRECTION('',(0.,0.,-1.));
#175=DIRECTION('center_axis',(0.,0.,1.));
#176=DIRECTION('ref_axis',(1.,0.,0.));
#177=DIRECTION('center_axis',(1.,0.,0.));
#178=DIRECTION('ref_axis',(0.,0.,-1.));
#179=DIRECTION('center_axis',(-1.,0.,0.));
#180=DIRECTION('ref_axis',(0.,1.,0.));
#181=DIRECTION('center_axis',(1.,0.,0.));
#182=DIRECTION('ref_axis',(0.,1.,0.));
#183=DIRECTION('center_axis',(1.,0.,0.));
#184=DIRECTION('ref_axis',(0.,1.,0.));
#185=DIRECTION('',(-1.,0.,0.));
#186=DIRECTION('center_axis',(1.,0.,0.));
#187=DIRECTION('ref_axis',(0.,0.,-1.));
#188=CARTESIAN_POINT('',(0.,0.,0.));
#189=CARTESIAN_POINT('Origin',(0.,0.,0.));
#190=CARTESIAN_POINT('',(-1.11022302462516E-15,-54.15,58.343272962699));
#191=CARTESIAN_POINT('',(-54.15,-5.40173647128567E-16,79.6));
#192=CARTESIAN_POINT('Ctrl Pts',(-1.11022302462516E-15,-54.15,58.343272962699));
#193=CARTESIAN_POINT('Ctrl Pts',(3.57088102188554,-54.15,58.343272962699));
#194=CARTESIAN_POINT('Ctrl Pts',(7.19210124736304,-53.7921256747065,58.6812971672662));
#195=CARTESIAN_POINT('Ctrl Pts',(14.2861829777062,-52.3567005399397,59.9655177636575));
#196=CARTESIAN_POINT('Ctrl Pts',(17.7599944391152,-51.2800283244887,60.9074447262075));
#197=CARTESIAN_POINT('Ctrl Pts',(24.3614725534249,-48.4930743556027,63.1488649949355));
#198=CARTESIAN_POINT('Ctrl Pts',(27.4961593408905,-46.780402447142,64.4468025458329));
#199=CARTESIAN_POINT('Ctrl Pts',(33.2833083341631,-42.8563439749428,67.1202666275088));
#200=CARTESIAN_POINT('Ctrl Pts',(35.9357984768687,-40.6438659256344,68.4941302530077));
#201=CARTESIAN_POINT('Ctrl Pts',(40.6150542734471,-35.964610129056,71.0615306016898));
#202=CARTESIAN_POINT('Ctrl Pts',(42.8220618169058,-33.3277541124634,72.354908301821));
#203=CARTESIAN_POINT('Ctrl Pts',(46.7555001361213,-27.538906667898,74.7501208625431));
#204=CARTESIAN_POINT('Ctrl Pts',(48.4821578136682,-24.3865281127219,75.8506472785669));
#205=CARTESIAN_POINT('Ctrl Pts',(51.2873551137622,-17.7434409143675,77.6736365001779));
#206=CARTESIAN_POINT('Ctrl Pts',(52.3682065080868,-14.2455913567446,78.3969784560489));
#207=CARTESIAN_POINT('Ctrl Pts',(53.7998255104452,-7.137555682734,79.3604334861101));
#208=CARTESIAN_POINT('Ctrl Pts',(54.15,-3.52717604818918,79.6));
#209=CARTESIAN_POINT('Ctrl Pts',(54.15,3.52717604818918,79.6));
#210=CARTESIAN_POINT('Ctrl Pts',(53.7998255104452,7.137555682734,79.3604334861101));
#211=CARTESIAN_POINT('Ctrl Pts',(52.3682065080868,14.2455913567446,78.3969784560489));
#212=CARTESIAN_POINT('Ctrl Pts',(51.2873551137622,17.7434409143675,77.6736365001779));
#213=CARTESIAN_POINT('Ctrl Pts',(48.4821578136682,24.3865281127219,75.8506472785669));
#214=CARTESIAN_POINT('Ctrl Pts',(46.7555001361213,27.538906667898,74.7501208625431));
#215=CARTESIAN_POINT('Ctrl Pts',(42.8220618169058,33.3277541124634,72.354908301821));
#216=CARTESIAN_POINT('Ctrl Pts',(40.6150542734471,35.964610129056,71.0615306016898));
#217=CARTESIAN_POINT('Ctrl Pts',(35.9357984768687,40.6438659256344,68.4941302530077));
#218=CARTESIAN_POINT('Ctrl Pts',(33.2833083341631,42.8563439749427,67.1202666275088));
#219=CARTESIAN_POINT('Ctrl Pts',(27.4961593408905,46.780402447142,64.4468025458329));
#220=CARTESIAN_POINT('Ctrl Pts',(24.3614725534249,48.4930743556027,63.1488649949355));
#221=CARTESIAN_POINT('Ctrl Pts',(17.7599944391152,51.2800283244887,60.9074447262075));
#222=CARTESIAN_POINT('Ctrl Pts',(14.2861829777062,52.3567005399397,59.9655177636575));
#223=CARTESIAN_POINT('Ctrl Pts',(7.19210124736304,53.7921256747065,58.6812971672662));
#224=CARTESIAN_POINT('Ctrl Pts',(3.57088102188554,54.15,58.343272962699));
#225=CARTESIAN_POINT('Ctrl Pts',(-3.57088102188554,54.15,58.343272962699));
#226=CARTESIAN_POINT('Ctrl Pts',(-7.19210124736304,53.7921256747065,58.6812971672662));
#227=CARTESIAN_POINT('Ctrl Pts',(-14.2861829777062,52.3567005399397,59.9655177636575));
#228=CARTESIAN_POINT('Ctrl Pts',(-17.7599944391152,51.2800283244887,60.9074447262075));
#229=CARTESIAN_POINT('Ctrl Pts',(-24.3614725534249,48.4930743556027,63.1488649949355));
#230=CARTESIAN_POINT('Ctrl Pts',(-27.4961593408905,46.780402447142,64.4468025458329));
#231=CARTESIAN_POINT('Ctrl Pts',(-33.2833083341631,42.8563439749428,67.1202666275088));
#232=CARTESIAN_POINT('Ctrl Pts',(-35.9357984768687,40.6438659256344,68.4941302530077));
#233=CARTESIAN_POINT('Ctrl Pts',(-40.6150542734471,35.964610129056,71.0615306016898));
#234=CARTESIAN_POINT('Ctrl Pts',(-42.8220618169058,33.3277541124633,72.354908301821));
#235=CARTESIAN_POINT('Ctrl Pts',(-46.7555001361213,27.538906667898,74.7501208625431));
#236=CARTESIAN_POINT('Ctrl Pts',(-48.4821578136682,24.3865281127219,75.8506472785669));
#237=CARTESIAN_POINT('Ctrl Pts',(-51.2873551137622,17.7434409143675,77.6736365001779));
#238=CARTESIAN_POINT('Ctrl Pts',(-52.3682065080868,14.2455913567446,78.3969784560489));
#239=CARTESIAN_POINT('Ctrl Pts',(-53.7998255104452,7.13755568273402,79.36043348611));
#240=CARTESIAN_POINT('Ctrl Pts',(-54.15,3.52717604818919,79.6));
#241=CARTESIAN_POINT('Ctrl Pts',(-54.15,6.66133814775094E-15,79.6));
#242=CARTESIAN_POINT('Ctrl Pts',(-54.15,6.66133814775094E-15,79.6));
#243=CARTESIAN_POINT('Ctrl Pts',(-54.15,-3.52717604818918,79.6));
#244=CARTESIAN_POINT('Ctrl Pts',(-53.7998255104452,-7.137555682734,79.36043348611));
#245=CARTESIAN_POINT('Ctrl Pts',(-52.3682065080868,-14.2455913567446,78.3969784560489));
#246=CARTESIAN_POINT('Ctrl Pts',(-51.2873551137622,-17.7434409143675,77.6736365001779));
#247=CARTESIAN_POINT('Ctrl Pts',(-48.4821578136682,-24.3865281127219,75.8506472785669));
#248=CARTESIAN_POINT('Ctrl Pts',(-46.7555001361214,-27.538906667898,74.7501208625431));
#249=CARTESIAN_POINT('Ctrl Pts',(-42.8220618169058,-33.3277541124633,72.354908301821));
#250=CARTESIAN_POINT('Ctrl Pts',(-40.6150542734471,-35.964610129056,71.0615306016898));
#251=CARTESIAN_POINT('Ctrl Pts',(-35.9357984768688,-40.6438659256344,68.4941302530078));
#252=CARTESIAN_POINT('Ctrl Pts',(-33.2833083341631,-42.8563439749427,67.1202666275088));
#253=CARTESIAN_POINT('Ctrl Pts',(-27.4961593408905,-46.780402447142,64.4468025458329));
#254=CARTESIAN_POINT('Ctrl Pts',(-24.3614725534249,-48.4930743556027,63.1488649949355));
#255=CARTESIAN_POINT('Ctrl Pts',(-17.7599944391152,-51.2800283244887,60.9074447262075));
#256=CARTESIAN_POINT('Ctrl Pts',(-14.2861829777062,-52.3567005399397,59.9655177636576));
#257=CARTESIAN_POINT('Ctrl Pts',(-7.19210124736302,-53.7921256747065,58.6812971672663));
#258=CARTESIAN_POINT('Ctrl Pts',(-3.57088102188553,-54.15,58.343272962699));
#259=CARTESIAN_POINT('Ctrl Pts',(2.22044604925031E-15,-54.15,58.343272962699));
#260=CARTESIAN_POINT('',(-54.15,6.63146241738292E-15,170.));
#261=CARTESIAN_POINT('',(-54.15,-6.63146241738292E-15,0.));
#262=CARTESIAN_POINT('Origin',(0.,0.,170.));
#263=CARTESIAN_POINT('Origin',(0.,0.,0.));
#264=CARTESIAN_POINT('',(-170.,-79.6,-9.74818852121293E-15));
#265=CARTESIAN_POINT('Origin',(-170.,0.,0.));
#266=CARTESIAN_POINT('',(170.,-79.6,9.74818852121293E-15));
#267=CARTESIAN_POINT('',(0.,-79.6,-9.74818852121293E-15));
#268=CARTESIAN_POINT('Origin',(170.,0.,0.));
#269=CARTESIAN_POINT('Origin',(0.,0.,0.));
#270=CARTESIAN_POINT('',(-57.15,-6.99885645712712E-15,170.));
#271=CARTESIAN_POINT('Origin',(0.,0.,170.));
#272=CARTESIAN_POINT('',(-57.15,-5.1647627655013E-15,82.6));
#273=CARTESIAN_POINT('',(-57.15,-6.99885645712712E-15,0.));
#274=CARTESIAN_POINT('',(2.22044604925031E-15,-57.15,59.6375510898964));
#275=CARTESIAN_POINT('Ctrl Pts',(2.22044604925031E-15,-57.15,59.6375510898964));
#276=CARTESIAN_POINT('Ctrl Pts',(-3.77854159985116,-57.15,59.6375510898964));
#277=CARTESIAN_POINT('Ctrl Pts',(-7.60509651018431,-56.7704688945248,60.0078330695528));
#278=CARTESIAN_POINT('Ctrl Pts',(-15.0951503830003,-55.2526929559982,61.4081922689978));
#279=CARTESIAN_POINT('Ctrl Pts',(-18.7597518236517,-54.1153878714382,62.4333866140976));
#280=CARTESIAN_POINT('Ctrl Pts',(-25.7220907823413,-51.1740022796694,64.866198309221));
#281=CARTESIAN_POINT('Ctrl Pts',(-29.0272070292415,-49.3673729754476,66.2721265719612));
#282=CARTESIAN_POINT('Ctrl Pts',(-35.1299499082073,-45.2283415876528,69.1630637823053));
#283=CARTESIAN_POINT('Ctrl Pts',(-37.9275658321976,-42.8947392574248,70.6463765362405));
#284=CARTESIAN_POINT('Ctrl Pts',(-42.861459863779,-37.9608452258434,73.4140826949233));
#285=CARTESIAN_POINT('Ctrl Pts',(-45.1886003596098,-35.1814324163396,74.8064367151012));
#286=CARTESIAN_POINT('Ctrl Pts',(-49.3382203936159,-29.0771869143583,77.3838055532928));
#287=CARTESIAN_POINT('Ctrl Pts',(-51.1609281015707,-25.7519324693743,78.5674539300927));
#288=CARTESIAN_POINT('Ctrl Pts',(-54.1234941123352,-18.741667509547,80.5279877422438));
#289=CARTESIAN_POINT('Ctrl Pts',(-55.2658021597726,-15.0490614549698,81.3058555318352));
#290=CARTESIAN_POINT('Ctrl Pts',(-56.7793716677671,-7.54228693233131,82.3421538604076));
#291=CARTESIAN_POINT('Ctrl Pts',(-57.15,-3.72791015917315,82.6));
#292=CARTESIAN_POINT('Ctrl Pts',(-57.15,-6.66133814775094E-15,82.6));
#293=CARTESIAN_POINT('Ctrl Pts',(-57.15,-4.44089209850063E-15,82.6));
#294=CARTESIAN_POINT('Ctrl Pts',(-57.15,3.72791015917314,82.6));
#295=CARTESIAN_POINT('Ctrl Pts',(-56.7793716677671,7.54228693233131,82.3421538604076));
#296=CARTESIAN_POINT('Ctrl Pts',(-55.2658021597726,15.0490614549698,81.3058555318352));
#297=CARTESIAN_POINT('Ctrl Pts',(-54.1234941123352,18.741667509547,80.5279877422438));
#298=CARTESIAN_POINT('Ctrl Pts',(-51.1609281015708,25.7519324693743,78.5674539300927));
#299=CARTESIAN_POINT('Ctrl Pts',(-49.3382203936159,29.0771869143583,77.3838055532928));
#300=CARTESIAN_POINT('Ctrl Pts',(-45.1886003596098,35.1814324163396,74.8064367151012));
#301=CARTESIAN_POINT('Ctrl Pts',(-42.861459863779,37.9608452258434,73.4140826949233));
#302=CARTESIAN_POINT('Ctrl Pts',(-37.9275658321976,42.8947392574248,70.6463765362405));
#303=CARTESIAN_POINT('Ctrl Pts',(-35.1299499082073,45.2283415876528,69.1630637823053));
#304=CARTESIAN_POINT('Ctrl Pts',(-29.0272070292415,49.3673729754476,66.2721265719612));
#305=CARTESIAN_POINT('Ctrl Pts',(-25.7220907823413,51.1740022796694,64.866198309221));
#306=CARTESIAN_POINT('Ctrl Pts',(-18.7597518236517,54.1153878714382,62.4333866140976));
#307=CARTESIAN_POINT('Ctrl Pts',(-15.0951503830003,55.2526929559982,61.4081922689978));
#308=CARTESIAN_POINT('Ctrl Pts',(-7.60509651018432,56.7704688945248,60.0078330695528));
#309=CARTESIAN_POINT('Ctrl Pts',(-3.77854159985117,57.15,59.6375510898964));
#310=CARTESIAN_POINT('Ctrl Pts',(3.77854159985117,57.15,59.6375510898964));
#311=CARTESIAN_POINT('Ctrl Pts',(7.60509651018432,56.7704688945248,60.0078330695528));
#312=CARTESIAN_POINT('Ctrl Pts',(15.0951503830003,55.2526929559982,61.4081922689978));
#313=CARTESIAN_POINT('Ctrl Pts',(18.7597518236517,54.1153878714382,62.4333866140976));
#314=CARTESIAN_POINT('Ctrl Pts',(25.7220907823413,51.1740022796694,64.866198309221));
#315=CARTESIAN_POINT('Ctrl Pts',(29.0272070292414,49.3673729754477,66.2721265719612));
#316=CARTESIAN_POINT('Ctrl Pts',(35.1299499082072,45.2283415876528,69.1630637823053));
#317=CARTESIAN_POINT('Ctrl Pts',(37.9275658321976,42.8947392574248,70.6463765362405));
#318=CARTESIAN_POINT('Ctrl Pts',(42.861459863779,37.9608452258434,73.4140826949233));
#319=CARTESIAN_POINT('Ctrl Pts',(45.1886003596098,35.1814324163396,74.8064367151012));
#320=CARTESIAN_POINT('Ctrl Pts',(49.3382203936159,29.0771869143583,77.3838055532928));
#321=CARTESIAN_POINT('Ctrl Pts',(51.1609281015707,25.7519324693743,78.5674539300927));
#322=CARTESIAN_POINT('Ctrl Pts',(54.1234941123352,18.741667509547,80.5279877422438));
#323=CARTESIAN_POINT('Ctrl Pts',(55.2658021597726,15.0490614549698,81.3058555318352));
#324=CARTESIAN_POINT('Ctrl Pts',(56.7793716677671,7.54228693233134,82.3421538604076));
#325=CARTESIAN_POINT('Ctrl Pts',(57.15,3.72791015917316,82.6));
#326=CARTESIAN_POINT('Ctrl Pts',(57.15,-3.72791015917314,82.6));
#327=CARTESIAN_POINT('Ctrl Pts',(56.7793716677671,-7.54228693233132,82.3421538604076));
#328=CARTESIAN_POINT('Ctrl Pts',(55.2658021597726,-15.0490614549698,81.3058555318352));
#329=CARTESIAN_POINT('Ctrl Pts',(54.1234941123352,-18.741667509547,80.5279877422438));
#330=CARTESIAN_POINT('Ctrl Pts',(51.1609281015708,-25.7519324693743,78.5674539300927));
#331=CARTESIAN_POINT('Ctrl Pts',(49.3382203936159,-29.0771869143583,77.3838055532928));
#332=CARTESIAN_POINT('Ctrl Pts',(45.1886003596098,-35.1814324163396,74.8064367151012));
#333=CARTESIAN_POINT('Ctrl Pts',(42.861459863779,-37.9608452258434,73.4140826949233));
#334=CARTESIAN_POINT('Ctrl Pts',(37.9275658321976,-42.8947392574248,70.6463765362405));
#335=CARTESIAN_POINT('Ctrl Pts',(35.1299499082073,-45.2283415876528,69.1630637823053));
#336=CARTESIAN_POINT('Ctrl Pts',(29.0272070292415,-49.3673729754476,66.2721265719613));
#337=CARTESIAN_POINT('Ctrl Pts',(25.7220907823413,-51.1740022796694,64.866198309221));
#338=CARTESIAN_POINT('Ctrl Pts',(18.7597518236517,-54.1153878714382,62.4333866140976));
#339=CARTESIAN_POINT('Ctrl Pts',(15.0951503830003,-55.2526929559982,61.4081922689978));
#340=CARTESIAN_POINT('Ctrl Pts',(7.60509651018431,-56.7704688945248,60.0078330695528));
#341=CARTESIAN_POINT('Ctrl Pts',(3.77854159985117,-57.15,59.6375510898964));
#342=CARTESIAN_POINT('Ctrl Pts',(-2.22044604925031E-15,-57.15,59.6375510898964));
#343=CARTESIAN_POINT('Origin',(0.,0.,170.));
#344=CARTESIAN_POINT('Origin',(-170.,0.,0.));
#345=CARTESIAN_POINT('',(-170.,-82.6,-1.01155825609571E-14));
#346=CARTESIAN_POINT('Origin',(-170.,0.,0.));
#347=CARTESIAN_POINT('Origin',(0.,0.,0.));
#348=CARTESIAN_POINT('',(170.,-82.6,-1.01155825609571E-14));
#349=CARTESIAN_POINT('Origin',(170.,0.,0.));
#350=CARTESIAN_POINT('',(0.,-82.6,-1.01155825609571E-14));
#351=CARTESIAN_POINT('Origin',(170.,0.,0.));
#352=UNCERTAINTY_MEASURE_WITH_UNIT(LENGTH_MEASURE(0.01),#356,
'DISTANCE_ACCURACY_VALUE',
'Maximum model space distance between geometric entities at asserted c
onnectivities');
#353=UNCERTAINTY_MEASURE_WITH_UNIT(LENGTH_MEASURE(0.01),#356,
'DISTANCE_ACCURACY_VALUE',
'Maximum model space distance between geometric entities at asserted c
onnectivities');
#354=(
GEOMETRIC_REPRESENTATION_CONTEXT(3)
GLOBAL_UNCERTAINTY_ASSIGNED_CONTEXT((#352))
GLOBAL_UNIT_ASSIGNED_CONTEXT((#356,#358,#359))
REPRESENTATION_CONTEXT('','3D')
);
#355=(
GEOMETRIC_REPRESENTATION_CONTEXT(3)
GLOBAL_UNCERTAINTY_ASSIGNED_CONTEXT((#353))
GLOBAL_UNIT_ASSIGNED_CONTEXT((#356,#358,#359))
REPRESENTATION_CONTEXT('','3D')
);
#356=(
LENGTH_UNIT()
NAMED_UNIT(*)
SI_UNIT(.MILLI.,.METRE.)
);
#357=(
LENGTH_UNIT()
NAMED_UNIT(*)
SI_UNIT(.CENTI.,.METRE.)
);
#358=(
NAMED_UNIT(*)
PLANE_ANGLE_UNIT()
SI_UNIT($,.RADIAN.)
);
#359=(
NAMED_UNIT(*)
SI_UNIT($,.STERADIAN.)
SOLID_ANGLE_UNIT()
);
#360=SHAPE_DEFINITION_REPRESENTATION(#361,#362);
#361=PRODUCT_DEFINITION_SHAPE('',$,#364);
#362=SHAPE_REPRESENTATION('',(#142),#354);
#363=PRODUCT_DEFINITION_CONTEXT('part definition',#368,'design');
#364=PRODUCT_DEFINITION('D8(R) 60\X\D745','D8(R) 60\X\D745',#365,#363);
#365=PRODUCT_DEFINITION_FORMATION('',$,#370);
#366=PRODUCT_RELATED_PRODUCT_CATEGORY('D8(R) 60\X\D745','D8(R) 60\X\D7
45',(#370));
#367=APPLICATION_PROTOCOL_DEFINITION('international standard',
'automotive_design',2009,#368);
#368=APPLICATION_CONTEXT(
'Core Data for Automotive Mechanical Design Process');
#369=PRODUCT_CONTEXT('part definition',#368,'mechanical');
#370=PRODUCT('D8(R) 60\X\D745','D8(R) 60\X\D745',$,(#369));
#371=PRESENTATION_STYLE_ASSIGNMENT((#372));
#372=SURFACE_STYLE_USAGE(.BOTH.,#375);
#373=SURFACE_STYLE_RENDERING_WITH_PROPERTIES($,#379,(#374));
#374=SURFACE_STYLE_TRANSPARENT(0.);
#375=SURFACE_SIDE_STYLE('',(#376,#373));
#376=SURFACE_STYLE_FILL_AREA(#377);
#377=FILL_AREA_STYLE('',(#378));
#378=FILL_AREA_STYLE_COLOUR('',#379);
#379=COLOUR_RGB('',0.749019607843137,0.749019607843137,0.749019607843137);
ENDSEC;
END-ISO-10303-21;
