ISO-10303-21;
HEADER;
/* Generated by software containing ST-Developer
 * from STEP Tools, Inc. (www.steptools.com) 
 */

FILE_DESCRIPTION(
/* description */ (''),
/* implementation_level */ '2;1');

FILE_NAME(
/* name */ 
'\\\\Tske00\\w\\Work\\TOSTE\\\X2\7D99624B\X0\\\02_\X2\6EB663A5\X0\\\\X2\6EB663A5752830C130FC30BA\X0\\\
D8(R)\\D8(R) 60\X\D740.stp',
/* time_stamp */ '2022-04-12T17:56:53+09:00',
/* author */ ('3dcad-eng'),
/* organization */ (''),
/* preprocessor_version */ 'ST-DEVELOPER v18.1',
/* originating_system */ 'Autodesk Inventor 2022',
/* authorisation */ '');

FILE_SCHEMA (('AUTOMOTIVE_DESIGN { 1 0 10303 214 3 1 1 }'));
ENDSEC;

DATA;
#10=MECHANICAL_DESIGN_GEOMETRIC_PRESENTATION_REPRESENTATION('',(#13),#355);
#11=SHAPE_REPRESENTATION_RELATIONSHIP('SRR','None',#362,#12);
#12=ADVANCED_BREP_SHAPE_REPRESENTATION('',(#14),#354);
#13=STYLED_ITEM('',(#371),#14);
#14=MANIFOLD_SOLID_BREP('\X2\30BD30EA30C330C9\X0\1',#123);
#15=PLANE('',#150);
#16=PLANE('',#151);
#17=PLANE('',#155);
#18=FACE_BOUND('',#32,.T.);
#19=FACE_BOUND('',#35,.T.);
#20=FACE_BOUND('',#37,.T.);
#21=FACE_BOUND('',#39,.T.);
#22=FACE_BOUND('',#41,.T.);
#23=FACE_OUTER_BOUND('',#30,.T.);
#24=FACE_OUTER_BOUND('',#31,.T.);
#25=FACE_OUTER_BOUND('',#33,.T.);
#26=FACE_OUTER_BOUND('',#34,.T.);
#27=FACE_OUTER_BOUND('',#36,.T.);
#28=FACE_OUTER_BOUND('',#38,.T.);
#29=FACE_OUTER_BOUND('',#40,.T.);
#30=EDGE_LOOP('',(#84,#85,#86,#87,#88));
#31=EDGE_LOOP('',(#89,#90,#91,#92));
#32=EDGE_LOOP('',(#93,#94));
#33=EDGE_LOOP('',(#95,#96,#97,#98,#99));
#34=EDGE_LOOP('',(#100));
#35=EDGE_LOOP('',(#101));
#36=EDGE_LOOP('',(#102));
#37=EDGE_LOOP('',(#103));
#38=EDGE_LOOP('',(#104,#105,#106,#107));
#39=EDGE_LOOP('',(#108,#109));
#40=EDGE_LOOP('',(#110));
#41=EDGE_LOOP('',(#111));
#42=CIRCLE('',#144,48.8);
#43=CIRCLE('',#146,79.6);
#44=CIRCLE('',#147,79.6);
#45=CIRCLE('',#149,50.8);
#46=CIRCLE('',#152,82.6);
#47=CIRCLE('',#154,82.6);
#48=LINE('',#261,#52);
#49=LINE('',#267,#53);
#50=LINE('',#273,#54);
#51=LINE('',#350,#55);
#52=VECTOR('',#160,48.8);
#53=VECTOR('',#167,79.6);
#54=VECTOR('',#174,50.8);
#55=VECTOR('',#185,82.6);
#56=B_SPLINE_CURVE_WITH_KNOTS('',3,(#192,#193,#194,#195,#196,#197,#198,
#199,#200,#201,#202,#203,#204,#205,#206,#207,#208,#209,#210,#211,#212,#213,
#214,#215,#216,#217,#218,#219,#220,#221,#222,#223,#224,#225,#226,#227,#228,
#229,#230,#231,#232,#233,#234,#235,#236,#237,#238,#239,#240,#241),
 .UNSPECIFIED.,.F.,.F.,(4,2,2,2,2,2,2,2,2,2,2,2,2,2,2,2,2,2,2,2,2,2,2,2,
4),(0.,0.953248959801946,1.90649791960389,2.85974687940584,3.81299583920778,
4.75940351717716,5.70581119514655,6.65221887311593,7.59862655108531,8.54503422905469,
9.49144190702407,10.4378495849935,11.3842572629628,12.3375062227648,13.2907551825667,
14.2440041423687,15.1972531021706,16.1505020619726,17.1037510217745,18.0569999815765,
19.0102489413784,19.9566566193478,20.9030642973172,21.8494719752865,22.7958796532559),
 .UNSPECIFIED.);
#57=B_SPLINE_CURVE_WITH_KNOTS('',3,(#242,#243,#244,#245,#246,#247,#248,
#249,#250,#251,#252,#253,#254,#255,#256,#257,#258,#259),.UNSPECIFIED.,.F.,
 .F.,(4,2,2,2,2,2,2,2,4),(22.7958796532559,23.7422873312253,24.6886950091947,
25.6351026871641,26.5815103651334,27.5347593249354,28.4880082847373,29.4412572445393,
30.3945062043412),.UNSPECIFIED.);
#58=B_SPLINE_CURVE_WITH_KNOTS('',3,(#275,#276,#277,#278,#279,#280,#281,
#282,#283,#284,#285,#286,#287,#288,#289,#290,#291,#292),.UNSPECIFIED.,.F.,
 .F.,(4,2,2,2,2,2,2,2,4),(0.,0.992632815947454,1.98526563189491,2.97789844784236,
3.97053126378981,4.95592691009558,5.94132255640134,6.92671820270711,7.91211384901287),
 .UNSPECIFIED.);
#59=B_SPLINE_CURVE_WITH_KNOTS('',3,(#293,#294,#295,#296,#297,#298,#299,
#300,#301,#302,#303,#304,#305,#306,#307,#308,#309,#310,#311,#312,#313,#314,
#315,#316,#317,#318,#319,#320,#321,#322,#323,#324,#325,#326,#327,#328,#329,
#330,#331,#332,#333,#334,#335,#336,#337,#338,#339,#340,#341,#342),
 .UNSPECIFIED.,.F.,.F.,(4,2,2,2,2,2,2,2,2,2,2,2,2,2,2,2,2,2,2,2,2,2,2,2,
4),(7.91211384901287,8.89750949531864,9.8829051416244,10.8683007879302,
11.8536964342359,12.8463292501834,13.8389620661308,14.8315948820783,15.8242276980257,
16.8168605139732,17.8094933299207,18.8021261458681,19.7947589618156,20.7801546081213,
21.7655502544271,22.7509459007329,23.7363415470386,24.7217371933444,25.7071328396501,
26.6925284859559,27.6779241322617,28.6705569482091,29.6631897641566,30.655822580104,
31.6484553960515),.UNSPECIFIED.);
#60=VERTEX_POINT('',#190);
#61=VERTEX_POINT('',#191);
#62=VERTEX_POINT('',#260);
#63=VERTEX_POINT('',#264);
#64=VERTEX_POINT('',#266);
#65=VERTEX_POINT('',#270);
#66=VERTEX_POINT('',#272);
#67=VERTEX_POINT('',#274);
#68=VERTEX_POINT('',#345);
#69=VERTEX_POINT('',#348);
#70=EDGE_CURVE('',#60,#61,#56,.T.);
#71=EDGE_CURVE('',#61,#60,#57,.T.);
#72=EDGE_CURVE('',#61,#62,#48,.T.);
#73=EDGE_CURVE('',#62,#62,#42,.T.);
#74=EDGE_CURVE('',#63,#63,#43,.T.);
#75=EDGE_CURVE('',#63,#64,#49,.T.);
#76=EDGE_CURVE('',#64,#64,#44,.T.);
#77=EDGE_CURVE('',#65,#65,#45,.T.);
#78=EDGE_CURVE('',#65,#66,#50,.T.);
#79=EDGE_CURVE('',#67,#66,#58,.T.);
#80=EDGE_CURVE('',#66,#67,#59,.T.);
#81=EDGE_CURVE('',#68,#68,#46,.T.);
#82=EDGE_CURVE('',#69,#69,#47,.T.);
#83=EDGE_CURVE('',#69,#68,#51,.T.);
#84=ORIENTED_EDGE('',*,*,#70,.F.);
#85=ORIENTED_EDGE('',*,*,#71,.F.);
#86=ORIENTED_EDGE('',*,*,#72,.T.);
#87=ORIENTED_EDGE('',*,*,#73,.F.);
#88=ORIENTED_EDGE('',*,*,#72,.F.);
#89=ORIENTED_EDGE('',*,*,#74,.F.);
#90=ORIENTED_EDGE('',*,*,#75,.T.);
#91=ORIENTED_EDGE('',*,*,#76,.F.);
#92=ORIENTED_EDGE('',*,*,#75,.F.);
#93=ORIENTED_EDGE('',*,*,#70,.T.);
#94=ORIENTED_EDGE('',*,*,#71,.T.);
#95=ORIENTED_EDGE('',*,*,#77,.F.);
#96=ORIENTED_EDGE('',*,*,#78,.T.);
#97=ORIENTED_EDGE('',*,*,#79,.F.);
#98=ORIENTED_EDGE('',*,*,#80,.F.);
#99=ORIENTED_EDGE('',*,*,#78,.F.);
#100=ORIENTED_EDGE('',*,*,#77,.T.);
#101=ORIENTED_EDGE('',*,*,#73,.T.);
#102=ORIENTED_EDGE('',*,*,#81,.T.);
#103=ORIENTED_EDGE('',*,*,#74,.T.);
#104=ORIENTED_EDGE('',*,*,#82,.F.);
#105=ORIENTED_EDGE('',*,*,#83,.T.);
#106=ORIENTED_EDGE('',*,*,#81,.F.);
#107=ORIENTED_EDGE('',*,*,#83,.F.);
#108=ORIENTED_EDGE('',*,*,#79,.T.);
#109=ORIENTED_EDGE('',*,*,#80,.T.);
#110=ORIENTED_EDGE('',*,*,#82,.T.);
#111=ORIENTED_EDGE('',*,*,#76,.T.);
#112=CYLINDRICAL_SURFACE('',#143,48.8);
#113=CYLINDRICAL_SURFACE('',#145,79.6);
#114=CYLINDRICAL_SURFACE('',#148,50.8);
#115=CYLINDRICAL_SURFACE('',#153,82.6);
#116=ADVANCED_FACE('',(#23),#112,.F.);
#117=ADVANCED_FACE('',(#24,#18),#113,.F.);
#118=ADVANCED_FACE('',(#25),#114,.T.);
#119=ADVANCED_FACE('',(#26,#19),#15,.T.);
#120=ADVANCED_FACE('',(#27,#20),#16,.F.);
#121=ADVANCED_FACE('',(#28,#21),#115,.T.);
#122=ADVANCED_FACE('',(#29,#22),#17,.T.);
#123=CLOSED_SHELL('',(#116,#117,#118,#119,#120,#121,#122));
#124=DERIVED_UNIT_ELEMENT(#126,1.);
#125=DERIVED_UNIT_ELEMENT(#357,-3.);
#126=(
MASS_UNIT()
NAMED_UNIT(*)
SI_UNIT($,.GRAM.)
);
#127=DERIVED_UNIT((#124,#125));
#128=MEASURE_REPRESENTATION_ITEM('density measure',
POSITIVE_RATIO_MEASURE(1.),#127);
#129=PROPERTY_DEFINITION_REPRESENTATION(#134,#131);
#130=PROPERTY_DEFINITION_REPRESENTATION(#135,#132);
#131=REPRESENTATION('material name',(#133),#354);
#132=REPRESENTATION('density',(#128),#354);
#133=DESCRIPTIVE_REPRESENTATION_ITEM('\X2\4E00822C\X0\','\X2\4E00822C\X0\');
#134=PROPERTY_DEFINITION('material property','material name',#364);
#135=PROPERTY_DEFINITION('material property','density of part',#364);
#136=DATE_TIME_ROLE('creation_date');
#137=APPLIED_DATE_AND_TIME_ASSIGNMENT(#138,#136,(#364));
#138=DATE_AND_TIME(#139,#140);
#139=CALENDAR_DATE(2022,31,3);
#140=LOCAL_TIME(0,0,0.,#141);
#141=COORDINATED_UNIVERSAL_TIME_OFFSET(0,0,.BEHIND.);
#142=AXIS2_PLACEMENT_3D('placement',#188,#156,#157);
#143=AXIS2_PLACEMENT_3D('',#189,#158,#159);
#144=AXIS2_PLACEMENT_3D('',#262,#161,#162);
#145=AXIS2_PLACEMENT_3D('',#263,#163,#164);
#146=AXIS2_PLACEMENT_3D('',#265,#165,#166);
#147=AXIS2_PLACEMENT_3D('',#268,#168,#169);
#148=AXIS2_PLACEMENT_3D('',#269,#170,#171);
#149=AXIS2_PLACEMENT_3D('',#271,#172,#173);
#150=AXIS2_PLACEMENT_3D('',#343,#175,#176);
#151=AXIS2_PLACEMENT_3D('',#344,#177,#178);
#152=AXIS2_PLACEMENT_3D('',#346,#179,#180);
#153=AXIS2_PLACEMENT_3D('',#347,#181,#182);
#154=AXIS2_PLACEMENT_3D('',#349,#183,#184);
#155=AXIS2_PLACEMENT_3D('',#351,#186,#187);
#156=DIRECTION('axis',(0.,0.,1.));
#157=DIRECTION('refdir',(1.,0.,0.));
#158=DIRECTION('center_axis',(0.,0.,1.));
#159=DIRECTION('ref_axis',(1.,0.,0.));
#160=DIRECTION('',(0.,0.,1.));
#161=DIRECTION('center_axis',(0.,0.,-1.));
#162=DIRECTION('ref_axis',(1.,0.,0.));
#163=DIRECTION('center_axis',(1.,0.,0.));
#164=DIRECTION('ref_axis',(0.,1.,0.));
#165=DIRECTION('center_axis',(1.,0.,0.));
#166=DIRECTION('ref_axis',(0.,1.,0.));
#167=DIRECTION('',(1.,0.,0.));
#168=DIRECTION('center_axis',(-1.,0.,0.));
#169=DIRECTION('ref_axis',(0.,1.,0.));
#170=DIRECTION('center_axis',(0.,0.,1.));
#171=DIRECTION('ref_axis',(1.,0.,0.));
#172=DIRECTION('center_axis',(0.,0.,1.));
#173=DIRECTION('ref_axis',(1.,0.,0.));
#174=DIRECTION('',(0.,0.,-1.));
#175=DIRECTION('center_axis',(0.,0.,1.));
#176=DIRECTION('ref_axis',(1.,0.,0.));
#177=DIRECTION('center_axis',(1.,0.,0.));
#178=DIRECTION('ref_axis',(0.,0.,-1.));
#179=DIRECTION('center_axis',(-1.,0.,0.));
#180=DIRECTION('ref_axis',(0.,1.,0.));
#181=DIRECTION('center_axis',(1.,0.,0.));
#182=DIRECTION('ref_axis',(0.,1.,0.));
#183=DIRECTION('center_axis',(1.,0.,0.));
#184=DIRECTION('ref_axis',(0.,1.,0.));
#185=DIRECTION('',(-1.,0.,0.));
#186=DIRECTION('center_axis',(1.,0.,0.));
#187=DIRECTION('ref_axis',(0.,0.,-1.));
#188=CARTESIAN_POINT('',(0.,0.,0.));
#189=CARTESIAN_POINT('Origin',(0.,0.,0.));
#190=CARTESIAN_POINT('',(0.,-48.8,62.8865645428338));
#191=CARTESIAN_POINT('',(-48.8,3.42530883955928E-16,79.6));
#192=CARTESIAN_POINT('Ctrl Pts',(0.,-48.8,62.8865645428338));
#193=CARTESIAN_POINT('Ctrl Pts',(3.17749653267315,-48.8,62.8865645428338));
#194=CARTESIAN_POINT('Ctrl Pts',(6.41973702476116,-48.4851055538877,63.1347496779955));
#195=CARTESIAN_POINT('Ctrl Pts',(12.7973163590501,-47.2043131884358,64.0980100215264));
#196=CARTESIAN_POINT('Ctrl Pts',(15.9331631625753,-46.2391081234536,64.8106416138776));
#197=CARTESIAN_POINT('Ctrl Pts',(21.9017884454143,-43.729088684272,66.529997805926));
#198=CARTESIAN_POINT('Ctrl Pts',(24.740812546984,-42.1822152551988,67.5356085972634));
#199=CARTESIAN_POINT('Ctrl Pts',(29.9796884452586,-38.6350277759636,69.6256586352977));
#200=CARTESIAN_POINT('Ctrl Pts',(32.3796755076146,-36.6339463361924,70.7084560359042));
#201=CARTESIAN_POINT('Ctrl Pts',(36.6186803002681,-32.394941543539,72.7476450022547));
#202=CARTESIAN_POINT('Ctrl Pts',(38.6171889833297,-30.0029103553149,73.7819319605373));
#203=CARTESIAN_POINT('Ctrl Pts',(42.1698912137393,-24.7621119968429,75.7019545515803));
#204=CARTESIAN_POINT('Ctrl Pts',(43.7243317800546,-21.9130655327028,76.586470555755));
#205=CARTESIAN_POINT('Ctrl Pts',(46.2437576086058,-15.9221415072243,78.0522603891343));
#206=CARTESIAN_POINT('Ctrl Pts',(47.210786414152,-12.7741121813288,78.634086774093));
#207=CARTESIAN_POINT('Ctrl Pts',(48.4891560690883,-6.39046474341716,79.4081828606332));
#208=CARTESIAN_POINT('Ctrl Pts',(48.8,-3.15469225989794,79.6));
#209=CARTESIAN_POINT('Ctrl Pts',(48.8,3.15469225989794,79.6));
#210=CARTESIAN_POINT('Ctrl Pts',(48.4891560690883,6.39046474341716,79.4081828606332));
#211=CARTESIAN_POINT('Ctrl Pts',(47.210786414152,12.7741121813288,78.634086774093));
#212=CARTESIAN_POINT('Ctrl Pts',(46.2437576086059,15.9221415072243,78.0522603891343));
#213=CARTESIAN_POINT('Ctrl Pts',(43.7243317800546,21.9130655327028,76.586470555755));
#214=CARTESIAN_POINT('Ctrl Pts',(42.1698912137393,24.7621119968429,75.7019545515803));
#215=CARTESIAN_POINT('Ctrl Pts',(38.6171889833297,30.0029103553149,73.7819319605373));
#216=CARTESIAN_POINT('Ctrl Pts',(36.6186803002681,32.394941543539,72.7476450022547));
#217=CARTESIAN_POINT('Ctrl Pts',(32.3796755076146,36.6339463361924,70.7084560359042));
#218=CARTESIAN_POINT('Ctrl Pts',(29.9796884452586,38.6350277759636,69.6256586352977));
#219=CARTESIAN_POINT('Ctrl Pts',(24.740812546984,42.1822152551988,67.5356085972634));
#220=CARTESIAN_POINT('Ctrl Pts',(21.9017884454143,43.729088684272,66.529997805926));
#221=CARTESIAN_POINT('Ctrl Pts',(15.9331631625753,46.2391081234536,64.8106416138776));
#222=CARTESIAN_POINT('Ctrl Pts',(12.7973163590502,47.2043131884358,64.0980100215264));
#223=CARTESIAN_POINT('Ctrl Pts',(6.41973702476117,48.4851055538877,63.1347496779955));
#224=CARTESIAN_POINT('Ctrl Pts',(3.17749653267316,48.8,62.8865645428338));
#225=CARTESIAN_POINT('Ctrl Pts',(-3.17749653267314,48.8,62.8865645428338));
#226=CARTESIAN_POINT('Ctrl Pts',(-6.41973702476115,48.4851055538877,63.1347496779955));
#227=CARTESIAN_POINT('Ctrl Pts',(-12.7973163590501,47.2043131884358,64.0980100215264));
#228=CARTESIAN_POINT('Ctrl Pts',(-15.9331631625753,46.2391081234536,64.8106416138776));
#229=CARTESIAN_POINT('Ctrl Pts',(-21.9017884454143,43.729088684272,66.529997805926));
#230=CARTESIAN_POINT('Ctrl Pts',(-24.740812546984,42.1822152551988,67.5356085972634));
#231=CARTESIAN_POINT('Ctrl Pts',(-29.9796884452586,38.6350277759636,69.6256586352977));
#232=CARTESIAN_POINT('Ctrl Pts',(-32.3796755076146,36.6339463361924,70.7084560359042));
#233=CARTESIAN_POINT('Ctrl Pts',(-36.6186803002681,32.394941543539,72.7476450022547));
#234=CARTESIAN_POINT('Ctrl Pts',(-38.6171889833297,30.0029103553149,73.7819319605373));
#235=CARTESIAN_POINT('Ctrl Pts',(-42.1698912137393,24.7621119968429,75.7019545515803));
#236=CARTESIAN_POINT('Ctrl Pts',(-43.7243317800546,21.9130655327028,76.586470555755));
#237=CARTESIAN_POINT('Ctrl Pts',(-46.2437576086058,15.9221415072244,78.0522603891343));
#238=CARTESIAN_POINT('Ctrl Pts',(-47.210786414152,12.7741121813288,78.634086774093));
#239=CARTESIAN_POINT('Ctrl Pts',(-48.4891560690883,6.39046474341718,79.4081828606332));
#240=CARTESIAN_POINT('Ctrl Pts',(-48.8,3.15469225989795,79.6));
#241=CARTESIAN_POINT('Ctrl Pts',(-48.8,4.44089209850063E-15,79.6));
#242=CARTESIAN_POINT('Ctrl Pts',(-48.8,6.66133814775094E-15,79.6));
#243=CARTESIAN_POINT('Ctrl Pts',(-48.8,-3.15469225989794,79.6));
#244=CARTESIAN_POINT('Ctrl Pts',(-48.4891560690883,-6.39046474341717,79.4081828606332));
#245=CARTESIAN_POINT('Ctrl Pts',(-47.210786414152,-12.7741121813288,78.634086774093));
#246=CARTESIAN_POINT('Ctrl Pts',(-46.2437576086058,-15.9221415072243,78.0522603891343));
#247=CARTESIAN_POINT('Ctrl Pts',(-43.7243317800546,-21.9130655327028,76.586470555755));
#248=CARTESIAN_POINT('Ctrl Pts',(-42.1698912137393,-24.7621119968429,75.7019545515803));
#249=CARTESIAN_POINT('Ctrl Pts',(-38.6171889833297,-30.0029103553149,73.7819319605373));
#250=CARTESIAN_POINT('Ctrl Pts',(-36.6186803002681,-32.394941543539,72.7476450022547));
#251=CARTESIAN_POINT('Ctrl Pts',(-32.3796755076146,-36.6339463361924,70.7084560359042));
#252=CARTESIAN_POINT('Ctrl Pts',(-29.9796884452586,-38.6350277759636,69.6256586352977));
#253=CARTESIAN_POINT('Ctrl Pts',(-24.740812546984,-42.1822152551988,67.5356085972634));
#254=CARTESIAN_POINT('Ctrl Pts',(-21.9017884454143,-43.729088684272,66.529997805926));
#255=CARTESIAN_POINT('Ctrl Pts',(-15.9331631625753,-46.2391081234536,64.8106416138776));
#256=CARTESIAN_POINT('Ctrl Pts',(-12.7973163590501,-47.2043131884358,64.0980100215264));
#257=CARTESIAN_POINT('Ctrl Pts',(-6.41973702476115,-48.4851055538877,63.1347496779955));
#258=CARTESIAN_POINT('Ctrl Pts',(-3.17749653267315,-48.8,62.8865645428338));
#259=CARTESIAN_POINT('Ctrl Pts',(-2.22044604925031E-15,-48.8,62.8865645428338));
#260=CARTESIAN_POINT('',(-48.8,5.97627637983908E-15,170.));
#261=CARTESIAN_POINT('',(-48.8,-5.97627637983908E-15,0.));
#262=CARTESIAN_POINT('Origin',(0.,0.,170.));
#263=CARTESIAN_POINT('Origin',(0.,0.,0.));
#264=CARTESIAN_POINT('',(-170.,-79.6,-9.74818852121293E-15));
#265=CARTESIAN_POINT('Origin',(-170.,0.,0.));
#266=CARTESIAN_POINT('',(170.,-79.6,9.74818852121293E-15));
#267=CARTESIAN_POINT('',(0.,-79.6,-9.74818852121293E-15));
#268=CARTESIAN_POINT('Origin',(170.,0.,0.));
#269=CARTESIAN_POINT('Origin',(0.,0.,0.));
#270=CARTESIAN_POINT('',(-50.8,-6.22120573966855E-15,170.));
#271=CARTESIAN_POINT('Origin',(0.,0.,170.));
#272=CARTESIAN_POINT('',(-50.8,-6.99638345602233E-15,82.6));
#273=CARTESIAN_POINT('',(-50.8,-6.22120573966855E-15,0.));
#274=CARTESIAN_POINT('',(0.,-50.8,65.1315591706509));
#275=CARTESIAN_POINT('Ctrl Pts',(-1.11022302462516E-15,-50.8,65.1315591706509));
#276=CARTESIAN_POINT('Ctrl Pts',(-3.30877605315818,-50.8,65.1315591706509));
#277=CARTESIAN_POINT('Ctrl Pts',(-6.68448201016792,-50.4720008231579,65.3914046216725));
#278=CARTESIAN_POINT('Ctrl Pts',(-13.3239158788702,-49.1383601535696,66.399399253583));
#279=CARTESIAN_POINT('Ctrl Pts',(-16.5881802537408,-48.1334432702642,67.1449717280505));
#280=CARTESIAN_POINT('Ctrl Pts',(-22.8009368745516,-45.5204805763498,68.9431708420218));
#281=CARTESIAN_POINT('Ctrl Pts',(-25.7559367120161,-43.9102892482314,69.9946288040771));
#282=CARTESIAN_POINT('Ctrl Pts',(-31.2088517002243,-40.2180227587778,72.1794444964066));
#283=CARTESIAN_POINT('Ctrl Pts',(-33.7069060882251,-38.1351428803282,73.3110943595523));
#284=CARTESIAN_POINT('Ctrl Pts',(-38.1190000023359,-33.7230489662174,75.4418571604597));
#285=CARTESIAN_POINT('Ctrl Pts',(-40.1991505836157,-31.2334162088217,76.5224054026297));
#286=CARTESIAN_POINT('Ctrl Pts',(-43.8972342492251,-25.7784953364576,78.528173254637));
#287=CARTESIAN_POINT('Ctrl Pts',(-45.5154235018674,-22.8129143028978,79.452123714543));
#288=CARTESIAN_POINT('Ctrl Pts',(-48.1383401352025,-16.5765837468617,80.9832447158252));
#289=CARTESIAN_POINT('Ctrl Pts',(-49.1451958055328,-13.299422022802,81.590996962079));
#290=CARTESIAN_POINT('Ctrl Pts',(-50.4762849666867,-6.65353687432165,82.3996107910777));
#291=CARTESIAN_POINT('Ctrl Pts',(-50.8,-3.28465215435256,82.6));
#292=CARTESIAN_POINT('Ctrl Pts',(-50.8,-7.7715611723761E-15,82.6));
#293=CARTESIAN_POINT('Ctrl Pts',(-50.8,-6.66133814775094E-15,82.6));
#294=CARTESIAN_POINT('Ctrl Pts',(-50.8,3.28465215435254,82.6));
#295=CARTESIAN_POINT('Ctrl Pts',(-50.4762849666867,6.65353687432165,82.3996107910777));
#296=CARTESIAN_POINT('Ctrl Pts',(-49.1451958055328,13.299422022802,81.590996962079));
#297=CARTESIAN_POINT('Ctrl Pts',(-48.1383401352025,16.5765837468617,80.9832447158253));
#298=CARTESIAN_POINT('Ctrl Pts',(-45.5154235018674,22.8129143028978,79.452123714543));
#299=CARTESIAN_POINT('Ctrl Pts',(-43.8972342492251,25.7784953364576,78.528173254637));
#300=CARTESIAN_POINT('Ctrl Pts',(-40.1991505836157,31.2334162088217,76.5224054026297));
#301=CARTESIAN_POINT('Ctrl Pts',(-38.1190000023359,33.7230489662174,75.4418571604597));
#302=CARTESIAN_POINT('Ctrl Pts',(-33.7069060882251,38.1351428803282,73.3110943595523));
#303=CARTESIAN_POINT('Ctrl Pts',(-31.2088517002243,40.2180227587778,72.1794444964066));
#304=CARTESIAN_POINT('Ctrl Pts',(-25.7559367120161,43.9102892482314,69.9946288040771));
#305=CARTESIAN_POINT('Ctrl Pts',(-22.8009368745516,45.5204805763498,68.9431708420218));
#306=CARTESIAN_POINT('Ctrl Pts',(-16.5881802537408,48.1334432702642,67.1449717280504));
#307=CARTESIAN_POINT('Ctrl Pts',(-13.3239158788702,49.1383601535696,66.399399253583));
#308=CARTESIAN_POINT('Ctrl Pts',(-6.68448201016792,50.4720008231579,65.3914046216726));
#309=CARTESIAN_POINT('Ctrl Pts',(-3.30877605315818,50.8,65.1315591706509));
#310=CARTESIAN_POINT('Ctrl Pts',(3.30877605315819,50.8,65.1315591706509));
#311=CARTESIAN_POINT('Ctrl Pts',(6.68448201016793,50.4720008231579,65.3914046216725));
#312=CARTESIAN_POINT('Ctrl Pts',(13.3239158788702,49.1383601535695,66.399399253583));
#313=CARTESIAN_POINT('Ctrl Pts',(16.5881802537408,48.1334432702642,67.1449717280505));
#314=CARTESIAN_POINT('Ctrl Pts',(22.8009368745516,45.5204805763498,68.9431708420218));
#315=CARTESIAN_POINT('Ctrl Pts',(25.7559367120161,43.9102892482314,69.9946288040771));
#316=CARTESIAN_POINT('Ctrl Pts',(31.2088517002243,40.2180227587778,72.1794444964066));
#317=CARTESIAN_POINT('Ctrl Pts',(33.706906088225,38.1351428803282,73.3110943595522));
#318=CARTESIAN_POINT('Ctrl Pts',(38.1190000023359,33.7230489662174,75.4418571604597));
#319=CARTESIAN_POINT('Ctrl Pts',(40.1991505836157,31.2334162088217,76.5224054026297));
#320=CARTESIAN_POINT('Ctrl Pts',(43.8972342492251,25.7784953364576,78.528173254637));
#321=CARTESIAN_POINT('Ctrl Pts',(45.5154235018674,22.8129143028978,79.452123714543));
#322=CARTESIAN_POINT('Ctrl Pts',(48.1383401352025,16.5765837468617,80.9832447158252));
#323=CARTESIAN_POINT('Ctrl Pts',(49.1451958055328,13.299422022802,81.590996962079));
#324=CARTESIAN_POINT('Ctrl Pts',(50.4762849666867,6.65353687432166,82.3996107910777));
#325=CARTESIAN_POINT('Ctrl Pts',(50.8,3.28465215435256,82.6));
#326=CARTESIAN_POINT('Ctrl Pts',(50.8,-3.28465215435254,82.6));
#327=CARTESIAN_POINT('Ctrl Pts',(50.4762849666867,-6.65353687432164,82.3996107910777));
#328=CARTESIAN_POINT('Ctrl Pts',(49.1451958055328,-13.299422022802,81.590996962079));
#329=CARTESIAN_POINT('Ctrl Pts',(48.1383401352025,-16.5765837468617,80.9832447158253));
#330=CARTESIAN_POINT('Ctrl Pts',(45.5154235018674,-22.8129143028977,79.452123714543));
#331=CARTESIAN_POINT('Ctrl Pts',(43.8972342492251,-25.7784953364575,78.528173254637));
#332=CARTESIAN_POINT('Ctrl Pts',(40.1991505836157,-31.2334162088217,76.5224054026297));
#333=CARTESIAN_POINT('Ctrl Pts',(38.1190000023359,-33.7230489662174,75.4418571604597));
#334=CARTESIAN_POINT('Ctrl Pts',(33.7069060882251,-38.1351428803282,73.3110943595523));
#335=CARTESIAN_POINT('Ctrl Pts',(31.2088517002243,-40.2180227587778,72.1794444964066));
#336=CARTESIAN_POINT('Ctrl Pts',(25.7559367120161,-43.9102892482313,69.9946288040771));
#337=CARTESIAN_POINT('Ctrl Pts',(22.8009368745516,-45.5204805763498,68.9431708420218));
#338=CARTESIAN_POINT('Ctrl Pts',(16.5881802537408,-48.1334432702642,67.1449717280504));
#339=CARTESIAN_POINT('Ctrl Pts',(13.3239158788702,-49.1383601535696,66.399399253583));
#340=CARTESIAN_POINT('Ctrl Pts',(6.68448201016791,-50.4720008231579,65.3914046216726));
#341=CARTESIAN_POINT('Ctrl Pts',(3.30877605315818,-50.8,65.1315591706509));
#342=CARTESIAN_POINT('Ctrl Pts',(1.11022302462516E-15,-50.8,65.1315591706509));
#343=CARTESIAN_POINT('Origin',(0.,0.,170.));
#344=CARTESIAN_POINT('Origin',(-170.,0.,0.));
#345=CARTESIAN_POINT('',(-170.,-82.6,-1.01155825609571E-14));
#346=CARTESIAN_POINT('Origin',(-170.,0.,0.));
#347=CARTESIAN_POINT('Origin',(0.,0.,0.));
#348=CARTESIAN_POINT('',(170.,-82.6,-1.01155825609571E-14));
#349=CARTESIAN_POINT('Origin',(170.,0.,0.));
#350=CARTESIAN_POINT('',(0.,-82.6,-1.01155825609571E-14));
#351=CARTESIAN_POINT('Origin',(170.,0.,0.));
#352=UNCERTAINTY_MEASURE_WITH_UNIT(LENGTH_MEASURE(0.01),#356,
'DISTANCE_ACCURACY_VALUE',
'Maximum model space distance between geometric entities at asserted c
onnectivities');
#353=UNCERTAINTY_MEASURE_WITH_UNIT(LENGTH_MEASURE(0.01),#356,
'DISTANCE_ACCURACY_VALUE',
'Maximum model space distance between geometric entities at asserted c
onnectivities');
#354=(
GEOMETRIC_REPRESENTATION_CONTEXT(3)
GLOBAL_UNCERTAINTY_ASSIGNED_CONTEXT((#352))
GLOBAL_UNIT_ASSIGNED_CONTEXT((#356,#358,#359))
REPRESENTATION_CONTEXT('','3D')
);
#355=(
GEOMETRIC_REPRESENTATION_CONTEXT(3)
GLOBAL_UNCERTAINTY_ASSIGNED_CONTEXT((#353))
GLOBAL_UNIT_ASSIGNED_CONTEXT((#356,#358,#359))
REPRESENTATION_CONTEXT('','3D')
);
#356=(
LENGTH_UNIT()
NAMED_UNIT(*)
SI_UNIT(.MILLI.,.METRE.)
);
#357=(
LENGTH_UNIT()
NAMED_UNIT(*)
SI_UNIT(.CENTI.,.METRE.)
);
#358=(
NAMED_UNIT(*)
PLANE_ANGLE_UNIT()
SI_UNIT($,.RADIAN.)
);
#359=(
NAMED_UNIT(*)
SI_UNIT($,.STERADIAN.)
SOLID_ANGLE_UNIT()
);
#360=SHAPE_DEFINITION_REPRESENTATION(#361,#362);
#361=PRODUCT_DEFINITION_SHAPE('',$,#364);
#362=SHAPE_REPRESENTATION('',(#142),#354);
#363=PRODUCT_DEFINITION_CONTEXT('part definition',#368,'design');
#364=PRODUCT_DEFINITION('D8(R) 60\X\D740','D8(R) 60\X\D740',#365,#363);
#365=PRODUCT_DEFINITION_FORMATION('',$,#370);
#366=PRODUCT_RELATED_PRODUCT_CATEGORY('D8(R) 60\X\D740','D8(R) 60\X\D7
40',(#370));
#367=APPLICATION_PROTOCOL_DEFINITION('international standard',
'automotive_design',2009,#368);
#368=APPLICATION_CONTEXT(
'Core Data for Automotive Mechanical Design Process');
#369=PRODUCT_CONTEXT('part definition',#368,'mechanical');
#370=PRODUCT('D8(R) 60\X\D740','D8(R) 60\X\D740',$,(#369));
#371=PRESENTATION_STYLE_ASSIGNMENT((#372));
#372=SURFACE_STYLE_USAGE(.BOTH.,#375);
#373=SURFACE_STYLE_RENDERING_WITH_PROPERTIES($,#379,(#374));
#374=SURFACE_STYLE_TRANSPARENT(0.);
#375=SURFACE_SIDE_STYLE('',(#376,#373));
#376=SURFACE_STYLE_FILL_AREA(#377);
#377=FILL_AREA_STYLE('',(#378));
#378=FILL_AREA_STYLE_COLOUR('',#379);
#379=COLOUR_RGB('',0.749019607843137,0.749019607843137,0.749019607843137);
ENDSEC;
END-ISO-10303-21;
