ISO-10303-21;
HEADER;
/* Generated by software containing ST-Developer
 * from STEP Tools, Inc. (www.steptools.com) 
 */

FILE_DESCRIPTION(
/* description */ (''),
/* implementation_level */ '2;1');

FILE_NAME(
/* name */ 
'\\\\Tske00\\w\\Work\\TOSTE\\\X2\7D99624B\X0\\\02_\X2\6EB663A5\X0\\\\X2\6EB663A5752830C130FC30BA\X0\\\
D8(R)\\D8(R) 60\X\D720.stp',
/* time_stamp */ '2022-04-12T17:50:48+09:00',
/* author */ ('3dcad-eng'),
/* organization */ (''),
/* preprocessor_version */ 'ST-DEVELOPER v18.1',
/* originating_system */ 'Autodesk Inventor 2022',
/* authorisation */ '');

FILE_SCHEMA (('AUTOMOTIVE_DESIGN { 1 0 10303 214 3 1 1 }'));
ENDSEC;

DATA;
#10=MECHANICAL_DESIGN_GEOMETRIC_PRESENTATION_REPRESENTATION('',(#13),#355);
#11=SHAPE_REPRESENTATION_RELATIONSHIP('SRR','None',#362,#12);
#12=ADVANCED_BREP_SHAPE_REPRESENTATION('',(#14),#354);
#13=STYLED_ITEM('',(#371),#14);
#14=MANIFOLD_SOLID_BREP('\X2\30BD30EA30C330C9\X0\1',#123);
#15=PLANE('',#150);
#16=PLANE('',#151);
#17=PLANE('',#155);
#18=FACE_BOUND('',#32,.T.);
#19=FACE_BOUND('',#35,.T.);
#20=FACE_BOUND('',#37,.T.);
#21=FACE_BOUND('',#39,.T.);
#22=FACE_BOUND('',#41,.T.);
#23=FACE_OUTER_BOUND('',#30,.T.);
#24=FACE_OUTER_BOUND('',#31,.T.);
#25=FACE_OUTER_BOUND('',#33,.T.);
#26=FACE_OUTER_BOUND('',#34,.T.);
#27=FACE_OUTER_BOUND('',#36,.T.);
#28=FACE_OUTER_BOUND('',#38,.T.);
#29=FACE_OUTER_BOUND('',#40,.T.);
#30=EDGE_LOOP('',(#84,#85,#86,#87,#88));
#31=EDGE_LOOP('',(#89,#90,#91,#92));
#32=EDGE_LOOP('',(#93,#94));
#33=EDGE_LOOP('',(#95,#96,#97,#98,#99));
#34=EDGE_LOOP('',(#100));
#35=EDGE_LOOP('',(#101));
#36=EDGE_LOOP('',(#102));
#37=EDGE_LOOP('',(#103));
#38=EDGE_LOOP('',(#104,#105,#106,#107));
#39=EDGE_LOOP('',(#108,#109));
#40=EDGE_LOOP('',(#110));
#41=EDGE_LOOP('',(#111));
#42=CIRCLE('',#144,23.9);
#43=CIRCLE('',#146,79.6);
#44=CIRCLE('',#147,79.6);
#45=CIRCLE('',#149,25.4);
#46=CIRCLE('',#152,82.6);
#47=CIRCLE('',#154,82.6);
#48=LINE('',#261,#52);
#49=LINE('',#267,#53);
#50=LINE('',#273,#54);
#51=LINE('',#350,#55);
#52=VECTOR('',#160,23.9);
#53=VECTOR('',#167,79.6);
#54=VECTOR('',#174,25.4);
#55=VECTOR('',#185,82.6);
#56=B_SPLINE_CURVE_WITH_KNOTS('',3,(#192,#193,#194,#195,#196,#197,#198,
#199,#200,#201,#202,#203,#204,#205,#206,#207,#208,#209,#210,#211,#212,#213,
#214,#215,#216,#217,#218,#219,#220,#221,#222,#223,#224,#225,#226,#227,#228,
#229,#230,#231,#232,#233,#234,#235,#236,#237,#238,#239,#240,#241),
 .UNSPECIFIED.,.F.,.F.,(4,2,2,2,2,2,2,2,2,2,2,2,2,2,2,2,2,2,2,2,2,2,2,2,
4),(0.,0.453241868551136,0.906483737102272,1.35972560565341,1.81296747420454,
2.26607384631346,2.71918021842237,3.17228659053129,3.6253929626402,4.07849933474911,
4.53160570685803,4.98471207896694,5.43781845107586,5.89106031962699,6.34430218817813,
6.79754405672926,7.2507859252804,7.70402779383154,8.15726966238267,8.61051153093381,
9.06375339948494,9.51685977159386,9.96996614370277,10.4230725158117,10.8761788879206),
 .UNSPECIFIED.);
#57=B_SPLINE_CURVE_WITH_KNOTS('',3,(#242,#243,#244,#245,#246,#247,#248,
#249,#250,#251,#252,#253,#254,#255,#256,#257,#258,#259),.UNSPECIFIED.,.F.,
 .F.,(4,2,2,2,2,2,2,2,4),(10.8761788879206,11.3292852600295,11.7823916321384,
12.2354980042473,12.6886043763563,13.1418462449074,13.5950881134585,14.0483299820097,
14.5015718505608),.UNSPECIFIED.);
#58=B_SPLINE_CURVE_WITH_KNOTS('',3,(#275,#276,#277,#278,#279,#280,#281,
#282,#283,#284,#285,#286,#287,#288,#289,#290,#291,#292),.UNSPECIFIED.,.F.,
 .F.,(4,2,2,2,2,2,2,2,4),(0.,0.481861065733606,0.963722131467212,1.44558319720082,
1.92744426293442,2.40914614113426,2.89084801933409,3.37254989753393,3.85425177573376),
 .UNSPECIFIED.);
#59=B_SPLINE_CURVE_WITH_KNOTS('',3,(#293,#294,#295,#296,#297,#298,#299,
#300,#301,#302,#303,#304,#305,#306,#307,#308,#309,#310,#311,#312,#313,#314,
#315,#316,#317,#318,#319,#320,#321,#322,#323,#324,#325,#326,#327,#328,#329,
#330,#331,#332,#333,#334,#335,#336,#337,#338,#339,#340,#341,#342),
 .UNSPECIFIED.,.F.,.F.,(4,2,2,2,2,2,2,2,2,2,2,2,2,2,2,2,2,2,2,2,2,2,2,2,
4),(3.85425177573376,4.3359536539336,4.81765553213343,5.29935741033327,
5.7810592885331,6.26292035426671,6.74478142000032,7.22664248573392,7.70850355146753,
8.19036461720114,8.67222568293474,9.15408674866835,9.63594781440195,10.1176496926018,
10.5993515708016,11.0810534490015,11.5627553272013,12.0444572054011,12.526159083601,
13.0078609618008,13.4895628400006,13.9714239057342,14.4532849714678,14.9351460372014,
15.4170071029351),.UNSPECIFIED.);
#60=VERTEX_POINT('',#190);
#61=VERTEX_POINT('',#191);
#62=VERTEX_POINT('',#260);
#63=VERTEX_POINT('',#264);
#64=VERTEX_POINT('',#266);
#65=VERTEX_POINT('',#270);
#66=VERTEX_POINT('',#272);
#67=VERTEX_POINT('',#274);
#68=VERTEX_POINT('',#345);
#69=VERTEX_POINT('',#348);
#70=EDGE_CURVE('',#60,#61,#56,.T.);
#71=EDGE_CURVE('',#61,#60,#57,.T.);
#72=EDGE_CURVE('',#61,#62,#48,.T.);
#73=EDGE_CURVE('',#62,#62,#42,.T.);
#74=EDGE_CURVE('',#63,#63,#43,.T.);
#75=EDGE_CURVE('',#63,#64,#49,.T.);
#76=EDGE_CURVE('',#64,#64,#44,.T.);
#77=EDGE_CURVE('',#65,#65,#45,.T.);
#78=EDGE_CURVE('',#65,#66,#50,.T.);
#79=EDGE_CURVE('',#67,#66,#58,.T.);
#80=EDGE_CURVE('',#66,#67,#59,.T.);
#81=EDGE_CURVE('',#68,#68,#46,.T.);
#82=EDGE_CURVE('',#69,#69,#47,.T.);
#83=EDGE_CURVE('',#69,#68,#51,.T.);
#84=ORIENTED_EDGE('',*,*,#70,.F.);
#85=ORIENTED_EDGE('',*,*,#71,.F.);
#86=ORIENTED_EDGE('',*,*,#72,.T.);
#87=ORIENTED_EDGE('',*,*,#73,.F.);
#88=ORIENTED_EDGE('',*,*,#72,.F.);
#89=ORIENTED_EDGE('',*,*,#74,.F.);
#90=ORIENTED_EDGE('',*,*,#75,.T.);
#91=ORIENTED_EDGE('',*,*,#76,.F.);
#92=ORIENTED_EDGE('',*,*,#75,.F.);
#93=ORIENTED_EDGE('',*,*,#70,.T.);
#94=ORIENTED_EDGE('',*,*,#71,.T.);
#95=ORIENTED_EDGE('',*,*,#77,.F.);
#96=ORIENTED_EDGE('',*,*,#78,.T.);
#97=ORIENTED_EDGE('',*,*,#79,.F.);
#98=ORIENTED_EDGE('',*,*,#80,.F.);
#99=ORIENTED_EDGE('',*,*,#78,.F.);
#100=ORIENTED_EDGE('',*,*,#77,.T.);
#101=ORIENTED_EDGE('',*,*,#73,.T.);
#102=ORIENTED_EDGE('',*,*,#81,.T.);
#103=ORIENTED_EDGE('',*,*,#74,.T.);
#104=ORIENTED_EDGE('',*,*,#82,.F.);
#105=ORIENTED_EDGE('',*,*,#83,.T.);
#106=ORIENTED_EDGE('',*,*,#81,.F.);
#107=ORIENTED_EDGE('',*,*,#83,.F.);
#108=ORIENTED_EDGE('',*,*,#79,.T.);
#109=ORIENTED_EDGE('',*,*,#80,.T.);
#110=ORIENTED_EDGE('',*,*,#82,.T.);
#111=ORIENTED_EDGE('',*,*,#76,.T.);
#112=CYLINDRICAL_SURFACE('',#143,23.9);
#113=CYLINDRICAL_SURFACE('',#145,79.6);
#114=CYLINDRICAL_SURFACE('',#148,25.4);
#115=CYLINDRICAL_SURFACE('',#153,82.6);
#116=ADVANCED_FACE('',(#23),#112,.F.);
#117=ADVANCED_FACE('',(#24,#18),#113,.F.);
#118=ADVANCED_FACE('',(#25),#114,.T.);
#119=ADVANCED_FACE('',(#26,#19),#15,.T.);
#120=ADVANCED_FACE('',(#27,#20),#16,.F.);
#121=ADVANCED_FACE('',(#28,#21),#115,.T.);
#122=ADVANCED_FACE('',(#29,#22),#17,.T.);
#123=CLOSED_SHELL('',(#116,#117,#118,#119,#120,#121,#122));
#124=DERIVED_UNIT_ELEMENT(#126,1.);
#125=DERIVED_UNIT_ELEMENT(#357,-3.);
#126=(
MASS_UNIT()
NAMED_UNIT(*)
SI_UNIT($,.GRAM.)
);
#127=DERIVED_UNIT((#124,#125));
#128=MEASURE_REPRESENTATION_ITEM('density measure',
POSITIVE_RATIO_MEASURE(1.),#127);
#129=PROPERTY_DEFINITION_REPRESENTATION(#134,#131);
#130=PROPERTY_DEFINITION_REPRESENTATION(#135,#132);
#131=REPRESENTATION('material name',(#133),#354);
#132=REPRESENTATION('density',(#128),#354);
#133=DESCRIPTIVE_REPRESENTATION_ITEM('\X2\4E00822C\X0\','\X2\4E00822C\X0\');
#134=PROPERTY_DEFINITION('material property','material name',#364);
#135=PROPERTY_DEFINITION('material property','density of part',#364);
#136=DATE_TIME_ROLE('creation_date');
#137=APPLIED_DATE_AND_TIME_ASSIGNMENT(#138,#136,(#364));
#138=DATE_AND_TIME(#139,#140);
#139=CALENDAR_DATE(2022,31,3);
#140=LOCAL_TIME(0,0,0.,#141);
#141=COORDINATED_UNIVERSAL_TIME_OFFSET(0,0,.BEHIND.);
#142=AXIS2_PLACEMENT_3D('placement',#188,#156,#157);
#143=AXIS2_PLACEMENT_3D('',#189,#158,#159);
#144=AXIS2_PLACEMENT_3D('',#262,#161,#162);
#145=AXIS2_PLACEMENT_3D('',#263,#163,#164);
#146=AXIS2_PLACEMENT_3D('',#265,#165,#166);
#147=AXIS2_PLACEMENT_3D('',#268,#168,#169);
#148=AXIS2_PLACEMENT_3D('',#269,#170,#171);
#149=AXIS2_PLACEMENT_3D('',#271,#172,#173);
#150=AXIS2_PLACEMENT_3D('',#343,#175,#176);
#151=AXIS2_PLACEMENT_3D('',#344,#177,#178);
#152=AXIS2_PLACEMENT_3D('',#346,#179,#180);
#153=AXIS2_PLACEMENT_3D('',#347,#181,#182);
#154=AXIS2_PLACEMENT_3D('',#349,#183,#184);
#155=AXIS2_PLACEMENT_3D('',#351,#186,#187);
#156=DIRECTION('axis',(0.,0.,1.));
#157=DIRECTION('refdir',(1.,0.,0.));
#158=DIRECTION('center_axis',(0.,0.,1.));
#159=DIRECTION('ref_axis',(1.,0.,0.));
#160=DIRECTION('',(0.,0.,1.));
#161=DIRECTION('center_axis',(0.,0.,-1.));
#162=DIRECTION('ref_axis',(1.,0.,0.));
#163=DIRECTION('center_axis',(1.,0.,0.));
#164=DIRECTION('ref_axis',(0.,1.,0.));
#165=DIRECTION('center_axis',(1.,0.,0.));
#166=DIRECTION('ref_axis',(0.,1.,0.));
#167=DIRECTION('',(1.,0.,0.));
#168=DIRECTION('center_axis',(-1.,0.,0.));
#169=DIRECTION('ref_axis',(0.,1.,0.));
#170=DIRECTION('center_axis',(0.,0.,1.));
#171=DIRECTION('ref_axis',(1.,0.,0.));
#172=DIRECTION('center_axis',(0.,0.,1.));
#173=DIRECTION('ref_axis',(1.,0.,0.));
#174=DIRECTION('',(0.,0.,-1.));
#175=DIRECTION('center_axis',(0.,0.,1.));
#176=DIRECTION('ref_axis',(1.,0.,0.));
#177=DIRECTION('center_axis',(1.,0.,0.));
#178=DIRECTION('ref_axis',(0.,0.,-1.));
#179=DIRECTION('center_axis',(-1.,0.,0.));
#180=DIRECTION('ref_axis',(0.,1.,0.));
#181=DIRECTION('center_axis',(1.,0.,0.));
#182=DIRECTION('ref_axis',(0.,1.,0.));
#183=DIRECTION('center_axis',(1.,0.,0.));
#184=DIRECTION('ref_axis',(0.,1.,0.));
#185=DIRECTION('',(-1.,0.,0.));
#186=DIRECTION('center_axis',(1.,0.,0.));
#187=DIRECTION('ref_axis',(0.,0.,-1.));
#188=CARTESIAN_POINT('',(0.,0.,0.));
#189=CARTESIAN_POINT('Origin',(0.,0.,0.));
#190=CARTESIAN_POINT('',(-5.55111512312578E-16,-23.9,75.9272678291535));
#191=CARTESIAN_POINT('',(-23.9,-7.56741441996415E-17,79.6));
#192=CARTESIAN_POINT('Ctrl Pts',(-5.55111512312578E-16,-23.9,75.9272678291535));
#193=CARTESIAN_POINT('Ctrl Pts',(1.51080622850379,-23.9,75.9272678291535));
#194=CARTESIAN_POINT('Ctrl Pts',(3.06998034706909,-23.7544373675129,75.9736033627995));
#195=CARTESIAN_POINT('Ctrl Pts',(6.1652656900241,-23.1449254280983,76.1615003094485));
#196=CARTESIAN_POINT('Ctrl Pts',(7.70142031963751,-22.6811423931357,76.3028859776635));
#197=CARTESIAN_POINT('Ctrl Pts',(10.6425804903471,-21.4588353400194,76.6556128568805));
#198=CARTESIAN_POINT('Ctrl Pts',(12.0501068600011,-20.6993411580512,76.8668647194709));
#199=CARTESIAN_POINT('Ctrl Pts',(14.6507937645347,-18.9478769768781,77.3172398249384));
#200=CARTESIAN_POINT('Ctrl Pts',(15.8439386722764,-17.9557654684405,77.5559028623753));
#201=CARTESIAN_POINT('Ctrl Pts',(17.9554498036296,-15.8442543370874,78.0146556030691));
#202=CARTESIAN_POINT('Ctrl Pts',(18.9475242469269,-14.651257944678,78.2511379750589));
#203=CARTESIAN_POINT('Ctrl Pts',(20.6991272453638,-12.0504840480993,78.6936197409959));
#204=CARTESIAN_POINT('Ctrl Pts',(21.4587831047427,-10.6427221808858,78.8992069939414));
#205=CARTESIAN_POINT('Ctrl Pts',(22.6812706375531,-7.70109573216715,79.2404285955362));
#206=CARTESIAN_POINT('Ctrl Pts',(23.1450732184211,-6.16471748615691,79.3760646810172));
#207=CARTESIAN_POINT('Ctrl Pts',(23.7545184729613,-3.06936607322349,79.555907246655));
#208=CARTESIAN_POINT('Ctrl Pts',(23.9,-1.51035457369638,79.6));
#209=CARTESIAN_POINT('Ctrl Pts',(23.9,1.51035457369638,79.6));
#210=CARTESIAN_POINT('Ctrl Pts',(23.7545184729613,3.06936607322348,79.555907246655));
#211=CARTESIAN_POINT('Ctrl Pts',(23.1450732184211,6.16471748615691,79.3760646810172));
#212=CARTESIAN_POINT('Ctrl Pts',(22.6812706375531,7.70109573216715,79.2404285955362));
#213=CARTESIAN_POINT('Ctrl Pts',(21.4587831047427,10.6427221808858,78.8992069939414));
#214=CARTESIAN_POINT('Ctrl Pts',(20.6991272453638,12.0504840480993,78.6936197409959));
#215=CARTESIAN_POINT('Ctrl Pts',(18.9475242469268,14.651257944678,78.2511379750589));
#216=CARTESIAN_POINT('Ctrl Pts',(17.9554498036296,15.8442543370874,78.0146556030691));
#217=CARTESIAN_POINT('Ctrl Pts',(15.8439386722764,17.9557654684405,77.5559028623753));
#218=CARTESIAN_POINT('Ctrl Pts',(14.6507937645347,18.9478769768781,77.3172398249384));
#219=CARTESIAN_POINT('Ctrl Pts',(12.0501068600011,20.6993411580512,76.8668647194709));
#220=CARTESIAN_POINT('Ctrl Pts',(10.6425804903471,21.4588353400194,76.6556128568805));
#221=CARTESIAN_POINT('Ctrl Pts',(7.70142031963751,22.6811423931357,76.3028859776635));
#222=CARTESIAN_POINT('Ctrl Pts',(6.1652656900241,23.1449254280983,76.1615003094485));
#223=CARTESIAN_POINT('Ctrl Pts',(3.06998034706909,23.7544373675129,75.9736033627995));
#224=CARTESIAN_POINT('Ctrl Pts',(1.51080622850379,23.9,75.9272678291535));
#225=CARTESIAN_POINT('Ctrl Pts',(-1.51080622850378,23.9,75.9272678291534));
#226=CARTESIAN_POINT('Ctrl Pts',(-3.06998034706908,23.7544373675129,75.9736033627995));
#227=CARTESIAN_POINT('Ctrl Pts',(-6.16526569002409,23.1449254280983,76.1615003094485));
#228=CARTESIAN_POINT('Ctrl Pts',(-7.7014203196375,22.6811423931357,76.3028859776635));
#229=CARTESIAN_POINT('Ctrl Pts',(-10.6425804903471,21.4588353400194,76.6556128568806));
#230=CARTESIAN_POINT('Ctrl Pts',(-12.0501068600011,20.6993411580512,76.8668647194709));
#231=CARTESIAN_POINT('Ctrl Pts',(-14.6507937645347,18.9478769768781,77.3172398249384));
#232=CARTESIAN_POINT('Ctrl Pts',(-15.8439386722764,17.9557654684405,77.5559028623753));
#233=CARTESIAN_POINT('Ctrl Pts',(-17.9554498036296,15.8442543370874,78.0146556030691));
#234=CARTESIAN_POINT('Ctrl Pts',(-18.9475242469269,14.651257944678,78.2511379750589));
#235=CARTESIAN_POINT('Ctrl Pts',(-20.6991272453638,12.0504840480993,78.693619740996));
#236=CARTESIAN_POINT('Ctrl Pts',(-21.4587831047427,10.6427221808858,78.8992069939414));
#237=CARTESIAN_POINT('Ctrl Pts',(-22.681270637553,7.70109573216715,79.2404285955362));
#238=CARTESIAN_POINT('Ctrl Pts',(-23.1450732184211,6.16471748615691,79.3760646810172));
#239=CARTESIAN_POINT('Ctrl Pts',(-23.7545184729613,3.06936607322349,79.555907246655));
#240=CARTESIAN_POINT('Ctrl Pts',(-23.9,1.51035457369638,79.6));
#241=CARTESIAN_POINT('Ctrl Pts',(-23.9,2.4980018054066E-15,79.6));
#242=CARTESIAN_POINT('Ctrl Pts',(-23.9,2.77555756156289E-15,79.6));
#243=CARTESIAN_POINT('Ctrl Pts',(-23.9,-1.51035457369638,79.6));
#244=CARTESIAN_POINT('Ctrl Pts',(-23.7545184729613,-3.06936607322348,79.555907246655));
#245=CARTESIAN_POINT('Ctrl Pts',(-23.1450732184211,-6.1647174861569,79.3760646810172));
#246=CARTESIAN_POINT('Ctrl Pts',(-22.6812706375531,-7.70109573216715,79.2404285955362));
#247=CARTESIAN_POINT('Ctrl Pts',(-21.4587831047427,-10.6427221808858,78.8992069939414));
#248=CARTESIAN_POINT('Ctrl Pts',(-20.6991272453638,-12.0504840480993,78.693619740996));
#249=CARTESIAN_POINT('Ctrl Pts',(-18.9475242469269,-14.651257944678,78.2511379750589));
#250=CARTESIAN_POINT('Ctrl Pts',(-17.9554498036296,-15.8442543370874,78.0146556030691));
#251=CARTESIAN_POINT('Ctrl Pts',(-15.8439386722764,-17.9557654684405,77.5559028623753));
#252=CARTESIAN_POINT('Ctrl Pts',(-14.6507937645347,-18.9478769768781,77.3172398249384));
#253=CARTESIAN_POINT('Ctrl Pts',(-12.0501068600011,-20.6993411580512,76.8668647194709));
#254=CARTESIAN_POINT('Ctrl Pts',(-10.6425804903471,-21.4588353400194,76.6556128568805));
#255=CARTESIAN_POINT('Ctrl Pts',(-7.70142031963751,-22.6811423931357,76.3028859776635));
#256=CARTESIAN_POINT('Ctrl Pts',(-6.16526569002411,-23.1449254280983,76.1615003094485));
#257=CARTESIAN_POINT('Ctrl Pts',(-3.0699803470691,-23.7544373675129,75.9736033627995));
#258=CARTESIAN_POINT('Ctrl Pts',(-1.51080622850379,-23.9,75.9272678291535));
#259=CARTESIAN_POINT('Ctrl Pts',(0.,-23.9,75.9272678291535));
#260=CARTESIAN_POINT('',(-23.9,2.92690584996217E-15,170.));
#261=CARTESIAN_POINT('',(-23.9,-2.92690584996217E-15,0.));
#262=CARTESIAN_POINT('Origin',(0.,0.,170.));
#263=CARTESIAN_POINT('Origin',(0.,0.,0.));
#264=CARTESIAN_POINT('',(-170.,-79.6,-9.74818852121293E-15));
#265=CARTESIAN_POINT('Origin',(-170.,0.,0.));
#266=CARTESIAN_POINT('',(170.,-79.6,9.74818852121293E-15));
#267=CARTESIAN_POINT('',(0.,-79.6,-9.74818852121293E-15));
#268=CARTESIAN_POINT('Origin',(170.,0.,0.));
#269=CARTESIAN_POINT('Origin',(0.,0.,0.));
#270=CARTESIAN_POINT('',(-25.4,-3.11060286983428E-15,170.));
#271=CARTESIAN_POINT('Origin',(0.,0.,170.));
#272=CARTESIAN_POINT('',(-25.4,-3.49819172801116E-15,82.6));
#273=CARTESIAN_POINT('',(-25.4,-3.11060286983428E-15,0.));
#274=CARTESIAN_POINT('',(2.77555756156289E-16,-25.4,78.5977098903015));
#275=CARTESIAN_POINT('Ctrl Pts',(0.,-25.4,78.5977098903015));
#276=CARTESIAN_POINT('Ctrl Pts',(-1.60620355244535,-25.4,78.5977098903015));
#277=CARTESIAN_POINT('Ctrl Pts',(-3.26364021510359,-25.2451909226453,78.6483046958918));
#278=CARTESIAN_POINT('Ctrl Pts',(-6.55364294944558,-24.5971700895205,78.8533748149405));
#279=CARTESIAN_POINT('Ctrl Pts',(-8.1862564101697,-24.1041372080664,79.0076550055405));
#280=CARTESIAN_POINT('Ctrl Pts',(-11.3118234632134,-22.8049757791918,79.3923927177776));
#281=CARTESIAN_POINT('Ctrl Pts',(-12.8074655110049,-21.9978162106383,79.6227501853044));
#282=CARTESIAN_POINT('Ctrl Pts',(-15.5708550297786,-20.136622474178,80.1136860987052));
#283=CARTESIAN_POINT('Ctrl Pts',(-16.8385887609934,-19.0824357232832,80.3737632839293));
#284=CARTESIAN_POINT('Ctrl Pts',(-19.0820650848467,-16.8389593994299,80.8735417248121));
#285=CARTESIAN_POINT('Ctrl Pts',(-20.1362080879042,-15.5714002703635,81.1311208511042));
#286=CARTESIAN_POINT('Ctrl Pts',(-21.9975644886357,-12.8079092432315,81.6130181878534));
#287=CARTESIAN_POINT('Ctrl Pts',(-22.8049138564342,-11.3119910577705,81.8368897290043));
#288=CARTESIAN_POINT('Ctrl Pts',(-24.1042873727087,-8.18587651906409,82.208449003787));
#289=CARTESIAN_POINT('Ctrl Pts',(-24.5973434664808,-6.55300009472624,82.3561408531854));
#290=CARTESIAN_POINT('Ctrl Pts',(-25.2452862027747,-3.26291899894255,82.5519782081469));
#291=CARTESIAN_POINT('Ctrl Pts',(-25.4,-1.60567292733279,82.6));
#292=CARTESIAN_POINT('Ctrl Pts',(-25.4,-3.60822483003176E-15,82.6));
#293=CARTESIAN_POINT('Ctrl Pts',(-25.4,-3.88578058618805E-15,82.6));
#294=CARTESIAN_POINT('Ctrl Pts',(-25.4,1.60567292733278,82.6));
#295=CARTESIAN_POINT('Ctrl Pts',(-25.2452862027747,3.26291899894254,82.5519782081469));
#296=CARTESIAN_POINT('Ctrl Pts',(-24.5973434664808,6.55300009472624,82.3561408531854));
#297=CARTESIAN_POINT('Ctrl Pts',(-24.1042873727087,8.18587651906408,82.208449003787));
#298=CARTESIAN_POINT('Ctrl Pts',(-22.8049138564342,11.3119910577705,81.8368897290043));
#299=CARTESIAN_POINT('Ctrl Pts',(-21.9975644886357,12.8079092432315,81.6130181878534));
#300=CARTESIAN_POINT('Ctrl Pts',(-20.1362080879042,15.5714002703635,81.1311208511042));
#301=CARTESIAN_POINT('Ctrl Pts',(-19.0820650848467,16.8389593994299,80.8735417248121));
#302=CARTESIAN_POINT('Ctrl Pts',(-16.8385887609934,19.0824357232832,80.3737632839293));
#303=CARTESIAN_POINT('Ctrl Pts',(-15.5708550297786,20.136622474178,80.1136860987052));
#304=CARTESIAN_POINT('Ctrl Pts',(-12.8074655110049,21.9978162106383,79.6227501853044));
#305=CARTESIAN_POINT('Ctrl Pts',(-11.3118234632134,22.8049757791918,79.3923927177776));
#306=CARTESIAN_POINT('Ctrl Pts',(-8.1862564101697,24.1041372080664,79.0076550055405));
#307=CARTESIAN_POINT('Ctrl Pts',(-6.55364294944558,24.5971700895205,78.8533748149405));
#308=CARTESIAN_POINT('Ctrl Pts',(-3.26364021510359,25.2451909226453,78.6483046958918));
#309=CARTESIAN_POINT('Ctrl Pts',(-1.60620355244535,25.4,78.5977098903015));
#310=CARTESIAN_POINT('Ctrl Pts',(1.60620355244535,25.4,78.5977098903015));
#311=CARTESIAN_POINT('Ctrl Pts',(3.26364021510359,25.2451909226453,78.6483046958918));
#312=CARTESIAN_POINT('Ctrl Pts',(6.55364294944559,24.5971700895205,78.8533748149405));
#313=CARTESIAN_POINT('Ctrl Pts',(8.1862564101697,24.1041372080664,79.0076550055405));
#314=CARTESIAN_POINT('Ctrl Pts',(11.3118234632134,22.8049757791918,79.3923927177776));
#315=CARTESIAN_POINT('Ctrl Pts',(12.8074655110049,21.9978162106383,79.6227501853044));
#316=CARTESIAN_POINT('Ctrl Pts',(15.5708550297786,20.136622474178,80.1136860987052));
#317=CARTESIAN_POINT('Ctrl Pts',(16.8385887609934,19.0824357232832,80.3737632839293));
#318=CARTESIAN_POINT('Ctrl Pts',(19.0820650848467,16.8389593994299,80.8735417248121));
#319=CARTESIAN_POINT('Ctrl Pts',(20.1362080879042,15.5714002703635,81.1311208511042));
#320=CARTESIAN_POINT('Ctrl Pts',(21.9975644886357,12.8079092432315,81.6130181878534));
#321=CARTESIAN_POINT('Ctrl Pts',(22.8049138564342,11.3119910577705,81.8368897290043));
#322=CARTESIAN_POINT('Ctrl Pts',(24.1042873727087,8.18587651906409,82.208449003787));
#323=CARTESIAN_POINT('Ctrl Pts',(24.5973434664808,6.55300009472625,82.3561408531854));
#324=CARTESIAN_POINT('Ctrl Pts',(25.2452862027747,3.26291899894256,82.5519782081469));
#325=CARTESIAN_POINT('Ctrl Pts',(25.4,1.60567292733279,82.6));
#326=CARTESIAN_POINT('Ctrl Pts',(25.4,-1.60567292733278,82.6));
#327=CARTESIAN_POINT('Ctrl Pts',(25.2452862027747,-3.26291899894254,82.5519782081469));
#328=CARTESIAN_POINT('Ctrl Pts',(24.5973434664808,-6.55300009472624,82.3561408531854));
#329=CARTESIAN_POINT('Ctrl Pts',(24.1042873727087,-8.18587651906408,82.208449003787));
#330=CARTESIAN_POINT('Ctrl Pts',(22.8049138564342,-11.3119910577705,81.8368897290043));
#331=CARTESIAN_POINT('Ctrl Pts',(21.9975644886357,-12.8079092432315,81.6130181878534));
#332=CARTESIAN_POINT('Ctrl Pts',(20.1362080879042,-15.5714002703635,81.1311208511042));
#333=CARTESIAN_POINT('Ctrl Pts',(19.0820650848467,-16.8389593994299,80.8735417248121));
#334=CARTESIAN_POINT('Ctrl Pts',(16.8385887609934,-19.0824357232832,80.3737632839293));
#335=CARTESIAN_POINT('Ctrl Pts',(15.5708550297786,-20.136622474178,80.1136860987052));
#336=CARTESIAN_POINT('Ctrl Pts',(12.8074655110049,-21.9978162106383,79.6227501853044));
#337=CARTESIAN_POINT('Ctrl Pts',(11.3118234632134,-22.8049757791918,79.3923927177776));
#338=CARTESIAN_POINT('Ctrl Pts',(8.1862564101697,-24.1041372080664,79.0076550055405));
#339=CARTESIAN_POINT('Ctrl Pts',(6.55364294944558,-24.5971700895205,78.8533748149405));
#340=CARTESIAN_POINT('Ctrl Pts',(3.26364021510359,-25.2451909226453,78.6483046958918));
#341=CARTESIAN_POINT('Ctrl Pts',(1.60620355244535,-25.4,78.5977098903015));
#342=CARTESIAN_POINT('Ctrl Pts',(0.,-25.4,78.5977098903015));
#343=CARTESIAN_POINT('Origin',(0.,0.,170.));
#344=CARTESIAN_POINT('Origin',(-170.,0.,0.));
#345=CARTESIAN_POINT('',(-170.,-82.6,-1.01155825609571E-14));
#346=CARTESIAN_POINT('Origin',(-170.,0.,0.));
#347=CARTESIAN_POINT('Origin',(0.,0.,0.));
#348=CARTESIAN_POINT('',(170.,-82.6,-1.01155825609571E-14));
#349=CARTESIAN_POINT('Origin',(170.,0.,0.));
#350=CARTESIAN_POINT('',(0.,-82.6,-1.01155825609571E-14));
#351=CARTESIAN_POINT('Origin',(170.,0.,0.));
#352=UNCERTAINTY_MEASURE_WITH_UNIT(LENGTH_MEASURE(0.01),#356,
'DISTANCE_ACCURACY_VALUE',
'Maximum model space distance between geometric entities at asserted c
onnectivities');
#353=UNCERTAINTY_MEASURE_WITH_UNIT(LENGTH_MEASURE(0.01),#356,
'DISTANCE_ACCURACY_VALUE',
'Maximum model space distance between geometric entities at asserted c
onnectivities');
#354=(
GEOMETRIC_REPRESENTATION_CONTEXT(3)
GLOBAL_UNCERTAINTY_ASSIGNED_CONTEXT((#352))
GLOBAL_UNIT_ASSIGNED_CONTEXT((#356,#358,#359))
REPRESENTATION_CONTEXT('','3D')
);
#355=(
GEOMETRIC_REPRESENTATION_CONTEXT(3)
GLOBAL_UNCERTAINTY_ASSIGNED_CONTEXT((#353))
GLOBAL_UNIT_ASSIGNED_CONTEXT((#356,#358,#359))
REPRESENTATION_CONTEXT('','3D')
);
#356=(
LENGTH_UNIT()
NAMED_UNIT(*)
SI_UNIT(.MILLI.,.METRE.)
);
#357=(
LENGTH_UNIT()
NAMED_UNIT(*)
SI_UNIT(.CENTI.,.METRE.)
);
#358=(
NAMED_UNIT(*)
PLANE_ANGLE_UNIT()
SI_UNIT($,.RADIAN.)
);
#359=(
NAMED_UNIT(*)
SI_UNIT($,.STERADIAN.)
SOLID_ANGLE_UNIT()
);
#360=SHAPE_DEFINITION_REPRESENTATION(#361,#362);
#361=PRODUCT_DEFINITION_SHAPE('',$,#364);
#362=SHAPE_REPRESENTATION('',(#142),#354);
#363=PRODUCT_DEFINITION_CONTEXT('part definition',#368,'design');
#364=PRODUCT_DEFINITION('D8(R) 60\X\D720','D8(R) 60\X\D720',#365,#363);
#365=PRODUCT_DEFINITION_FORMATION('',$,#370);
#366=PRODUCT_RELATED_PRODUCT_CATEGORY('D8(R) 60\X\D720','D8(R) 60\X\D7
20',(#370));
#367=APPLICATION_PROTOCOL_DEFINITION('international standard',
'automotive_design',2009,#368);
#368=APPLICATION_CONTEXT(
'Core Data for Automotive Mechanical Design Process');
#369=PRODUCT_CONTEXT('part definition',#368,'mechanical');
#370=PRODUCT('D8(R) 60\X\D720','D8(R) 60\X\D720',$,(#369));
#371=PRESENTATION_STYLE_ASSIGNMENT((#372));
#372=SURFACE_STYLE_USAGE(.BOTH.,#375);
#373=SURFACE_STYLE_RENDERING_WITH_PROPERTIES($,#379,(#374));
#374=SURFACE_STYLE_TRANSPARENT(0.);
#375=SURFACE_SIDE_STYLE('',(#376,#373));
#376=SURFACE_STYLE_FILL_AREA(#377);
#377=FILL_AREA_STYLE('',(#378));
#378=FILL_AREA_STYLE_COLOUR('',#379);
#379=COLOUR_RGB('',0.749019607843137,0.749019607843137,0.749019607843137);
ENDSEC;
END-ISO-10303-21;
