ISO-10303-21;
HEADER;
/* Generated by software containing ST-Developer
 * from STEP Tools, Inc. (www.steptools.com) 
 */

FILE_DESCRIPTION(
/* description */ (''),
/* implementation_level */ '2;1');

FILE_NAME(
/* name */ 
'\\\\Tske00\\w\\Work\\TOSTE\\\X2\7D99624B\X0\\\02_\X2\6EB663A5\X0\\\\X2\6EB663A5752830C130FC30BA\X0\\\
D8(R)\\D8(R) 50\X\D740.stp',
/* time_stamp */ '2022-04-12T17:50:45+09:00',
/* author */ ('3dcad-eng'),
/* organization */ (''),
/* preprocessor_version */ 'ST-DEVELOPER v18.1',
/* originating_system */ 'Autodesk Inventor 2022',
/* authorisation */ '');

FILE_SCHEMA (('AUTOMOTIVE_DESIGN { 1 0 10303 214 3 1 1 }'));
ENDSEC;

DATA;
#10=MECHANICAL_DESIGN_GEOMETRIC_PRESENTATION_REPRESENTATION('',(#13),#355);
#11=SHAPE_REPRESENTATION_RELATIONSHIP('SRR','None',#362,#12);
#12=ADVANCED_BREP_SHAPE_REPRESENTATION('',(#14),#354);
#13=STYLED_ITEM('',(#371),#14);
#14=MANIFOLD_SOLID_BREP('\X2\30BD30EA30C330C9\X0\1',#123);
#15=PLANE('',#150);
#16=PLANE('',#151);
#17=PLANE('',#155);
#18=FACE_BOUND('',#32,.T.);
#19=FACE_BOUND('',#35,.T.);
#20=FACE_BOUND('',#37,.T.);
#21=FACE_BOUND('',#39,.T.);
#22=FACE_BOUND('',#41,.T.);
#23=FACE_OUTER_BOUND('',#30,.T.);
#24=FACE_OUTER_BOUND('',#31,.T.);
#25=FACE_OUTER_BOUND('',#33,.T.);
#26=FACE_OUTER_BOUND('',#34,.T.);
#27=FACE_OUTER_BOUND('',#36,.T.);
#28=FACE_OUTER_BOUND('',#38,.T.);
#29=FACE_OUTER_BOUND('',#40,.T.);
#30=EDGE_LOOP('',(#84,#85,#86,#87,#88));
#31=EDGE_LOOP('',(#89,#90,#91,#92));
#32=EDGE_LOOP('',(#93,#94));
#33=EDGE_LOOP('',(#95,#96,#97,#98,#99));
#34=EDGE_LOOP('',(#100));
#35=EDGE_LOOP('',(#101));
#36=EDGE_LOOP('',(#102));
#37=EDGE_LOOP('',(#103));
#38=EDGE_LOOP('',(#104,#105,#106,#107));
#39=EDGE_LOOP('',(#108,#109));
#40=EDGE_LOOP('',(#110));
#41=EDGE_LOOP('',(#111));
#42=CIRCLE('',#144,48.8);
#43=CIRCLE('',#146,66.9);
#44=CIRCLE('',#147,66.9);
#45=CIRCLE('',#149,50.8);
#46=CIRCLE('',#152,69.9);
#47=CIRCLE('',#154,69.9);
#48=LINE('',#261,#52);
#49=LINE('',#267,#53);
#50=LINE('',#273,#54);
#51=LINE('',#350,#55);
#52=VECTOR('',#160,48.8);
#53=VECTOR('',#167,66.9);
#54=VECTOR('',#174,50.8);
#55=VECTOR('',#185,69.9);
#56=B_SPLINE_CURVE_WITH_KNOTS('',3,(#192,#193,#194,#195,#196,#197,#198,
#199,#200,#201,#202,#203,#204,#205,#206,#207,#208,#209,#210,#211,#212,#213,
#214,#215,#216,#217,#218,#219,#220,#221,#222,#223,#224,#225,#226,#227,#228,
#229,#230,#231,#232,#233,#234,#235,#236,#237,#238,#239,#240,#241),
 .UNSPECIFIED.,.F.,.F.,(4,2,2,2,2,2,2,2,2,2,2,2,2,2,2,2,2,2,2,2,2,2,2,2,
4),(0.,0.977170529120555,1.95434105824111,2.93151158736167,3.90868211648222,
4.86832718221168,5.82797224794114,6.78761731367059,7.74726237940005,8.70690744512951,
9.66655251085896,10.6261975765884,11.5858426423179,12.5630131714384,13.540183700559,
14.5173542296795,15.4945247588001,16.4716952879207,17.4488658170412,18.4260363461618,
19.4032068752823,20.3628519410118,21.3224970067412,22.2821420724707,23.2417871382001),
 .UNSPECIFIED.);
#57=B_SPLINE_CURVE_WITH_KNOTS('',3,(#242,#243,#244,#245,#246,#247,#248,
#249,#250,#251,#252,#253,#254,#255,#256,#257,#258,#259),.UNSPECIFIED.,.F.,
 .F.,(4,2,2,2,2,2,2,2,4),(23.2417871382001,24.2014322039296,25.1610772696591,
26.1207223353885,27.080367401118,28.0575379302385,29.0347084593591,30.0118789884796,
30.9890495176002),.UNSPECIFIED.);
#58=B_SPLINE_CURVE_WITH_KNOTS('',3,(#275,#276,#277,#278,#279,#280,#281,
#282,#283,#284,#285,#286,#287,#288,#289,#290,#291,#292),.UNSPECIFIED.,.F.,
 .F.,(4,2,2,2,2,2,2,2,4),(0.,1.01646476814297,2.03292953628594,3.04939430442892,
4.06585907257189,5.06447030282185,6.06308153307182,7.06169276332179,8.06030399357176),
 .UNSPECIFIED.);
#59=B_SPLINE_CURVE_WITH_KNOTS('',3,(#293,#294,#295,#296,#297,#298,#299,
#300,#301,#302,#303,#304,#305,#306,#307,#308,#309,#310,#311,#312,#313,#314,
#315,#316,#317,#318,#319,#320,#321,#322,#323,#324,#325,#326,#327,#328,#329,
#330,#331,#332,#333,#334,#335,#336,#337,#338,#339,#340,#341,#342),
 .UNSPECIFIED.,.F.,.F.,(4,2,2,2,2,2,2,2,2,2,2,2,2,2,2,2,2,2,2,2,2,2,2,2,
4),(8.06030399357176,9.05891522382172,10.0575264540717,11.0561376843217,
12.0547489145716,13.0712136827146,14.0876784508576,15.1041432190005,16.1206079871435,
17.1370727552865,18.1535375234295,19.1700022915724,20.1864670597154,21.1850782899654,
22.1836895202153,23.1823007504653,24.1809119807153,25.1795232109652,26.1781344412152,
27.1767456714652,28.1753569017151,29.1918216698581,30.2082864380011,31.2247512061441,
32.241215974287),.UNSPECIFIED.);
#60=VERTEX_POINT('',#190);
#61=VERTEX_POINT('',#191);
#62=VERTEX_POINT('',#260);
#63=VERTEX_POINT('',#264);
#64=VERTEX_POINT('',#266);
#65=VERTEX_POINT('',#270);
#66=VERTEX_POINT('',#272);
#67=VERTEX_POINT('',#274);
#68=VERTEX_POINT('',#345);
#69=VERTEX_POINT('',#348);
#70=EDGE_CURVE('',#60,#61,#56,.T.);
#71=EDGE_CURVE('',#61,#60,#57,.T.);
#72=EDGE_CURVE('',#61,#62,#48,.T.);
#73=EDGE_CURVE('',#62,#62,#42,.T.);
#74=EDGE_CURVE('',#63,#63,#43,.T.);
#75=EDGE_CURVE('',#63,#64,#49,.T.);
#76=EDGE_CURVE('',#64,#64,#44,.T.);
#77=EDGE_CURVE('',#65,#65,#45,.T.);
#78=EDGE_CURVE('',#65,#66,#50,.T.);
#79=EDGE_CURVE('',#67,#66,#58,.T.);
#80=EDGE_CURVE('',#66,#67,#59,.T.);
#81=EDGE_CURVE('',#68,#68,#46,.T.);
#82=EDGE_CURVE('',#69,#69,#47,.T.);
#83=EDGE_CURVE('',#69,#68,#51,.T.);
#84=ORIENTED_EDGE('',*,*,#70,.F.);
#85=ORIENTED_EDGE('',*,*,#71,.F.);
#86=ORIENTED_EDGE('',*,*,#72,.T.);
#87=ORIENTED_EDGE('',*,*,#73,.F.);
#88=ORIENTED_EDGE('',*,*,#72,.F.);
#89=ORIENTED_EDGE('',*,*,#74,.F.);
#90=ORIENTED_EDGE('',*,*,#75,.T.);
#91=ORIENTED_EDGE('',*,*,#76,.F.);
#92=ORIENTED_EDGE('',*,*,#75,.F.);
#93=ORIENTED_EDGE('',*,*,#70,.T.);
#94=ORIENTED_EDGE('',*,*,#71,.T.);
#95=ORIENTED_EDGE('',*,*,#77,.F.);
#96=ORIENTED_EDGE('',*,*,#78,.T.);
#97=ORIENTED_EDGE('',*,*,#79,.F.);
#98=ORIENTED_EDGE('',*,*,#80,.F.);
#99=ORIENTED_EDGE('',*,*,#78,.F.);
#100=ORIENTED_EDGE('',*,*,#77,.T.);
#101=ORIENTED_EDGE('',*,*,#73,.T.);
#102=ORIENTED_EDGE('',*,*,#81,.T.);
#103=ORIENTED_EDGE('',*,*,#74,.T.);
#104=ORIENTED_EDGE('',*,*,#82,.F.);
#105=ORIENTED_EDGE('',*,*,#83,.T.);
#106=ORIENTED_EDGE('',*,*,#81,.F.);
#107=ORIENTED_EDGE('',*,*,#83,.F.);
#108=ORIENTED_EDGE('',*,*,#79,.T.);
#109=ORIENTED_EDGE('',*,*,#80,.T.);
#110=ORIENTED_EDGE('',*,*,#82,.T.);
#111=ORIENTED_EDGE('',*,*,#76,.T.);
#112=CYLINDRICAL_SURFACE('',#143,48.8);
#113=CYLINDRICAL_SURFACE('',#145,66.9);
#114=CYLINDRICAL_SURFACE('',#148,50.8);
#115=CYLINDRICAL_SURFACE('',#153,69.9);
#116=ADVANCED_FACE('',(#23),#112,.F.);
#117=ADVANCED_FACE('',(#24,#18),#113,.F.);
#118=ADVANCED_FACE('',(#25),#114,.T.);
#119=ADVANCED_FACE('',(#26,#19),#15,.T.);
#120=ADVANCED_FACE('',(#27,#20),#16,.F.);
#121=ADVANCED_FACE('',(#28,#21),#115,.T.);
#122=ADVANCED_FACE('',(#29,#22),#17,.T.);
#123=CLOSED_SHELL('',(#116,#117,#118,#119,#120,#121,#122));
#124=DERIVED_UNIT_ELEMENT(#126,1.);
#125=DERIVED_UNIT_ELEMENT(#357,-3.);
#126=(
MASS_UNIT()
NAMED_UNIT(*)
SI_UNIT($,.GRAM.)
);
#127=DERIVED_UNIT((#124,#125));
#128=MEASURE_REPRESENTATION_ITEM('density measure',
POSITIVE_RATIO_MEASURE(1.),#127);
#129=PROPERTY_DEFINITION_REPRESENTATION(#134,#131);
#130=PROPERTY_DEFINITION_REPRESENTATION(#135,#132);
#131=REPRESENTATION('material name',(#133),#354);
#132=REPRESENTATION('density',(#128),#354);
#133=DESCRIPTIVE_REPRESENTATION_ITEM('\X2\4E00822C\X0\','\X2\4E00822C\X0\');
#134=PROPERTY_DEFINITION('material property','material name',#364);
#135=PROPERTY_DEFINITION('material property','density of part',#364);
#136=DATE_TIME_ROLE('creation_date');
#137=APPLIED_DATE_AND_TIME_ASSIGNMENT(#138,#136,(#364));
#138=DATE_AND_TIME(#139,#140);
#139=CALENDAR_DATE(2022,31,3);
#140=LOCAL_TIME(0,0,0.,#141);
#141=COORDINATED_UNIVERSAL_TIME_OFFSET(0,0,.BEHIND.);
#142=AXIS2_PLACEMENT_3D('placement',#188,#156,#157);
#143=AXIS2_PLACEMENT_3D('',#189,#158,#159);
#144=AXIS2_PLACEMENT_3D('',#262,#161,#162);
#145=AXIS2_PLACEMENT_3D('',#263,#163,#164);
#146=AXIS2_PLACEMENT_3D('',#265,#165,#166);
#147=AXIS2_PLACEMENT_3D('',#268,#168,#169);
#148=AXIS2_PLACEMENT_3D('',#269,#170,#171);
#149=AXIS2_PLACEMENT_3D('',#271,#172,#173);
#150=AXIS2_PLACEMENT_3D('',#343,#175,#176);
#151=AXIS2_PLACEMENT_3D('',#344,#177,#178);
#152=AXIS2_PLACEMENT_3D('',#346,#179,#180);
#153=AXIS2_PLACEMENT_3D('',#347,#181,#182);
#154=AXIS2_PLACEMENT_3D('',#349,#183,#184);
#155=AXIS2_PLACEMENT_3D('',#351,#186,#187);
#156=DIRECTION('axis',(0.,0.,1.));
#157=DIRECTION('refdir',(1.,0.,0.));
#158=DIRECTION('center_axis',(0.,0.,1.));
#159=DIRECTION('ref_axis',(1.,0.,0.));
#160=DIRECTION('',(0.,0.,1.));
#161=DIRECTION('center_axis',(0.,0.,-1.));
#162=DIRECTION('ref_axis',(1.,0.,0.));
#163=DIRECTION('center_axis',(1.,0.,0.));
#164=DIRECTION('ref_axis',(0.,1.,0.));
#165=DIRECTION('center_axis',(1.,0.,0.));
#166=DIRECTION('ref_axis',(0.,1.,0.));
#167=DIRECTION('',(1.,0.,0.));
#168=DIRECTION('center_axis',(-1.,0.,0.));
#169=DIRECTION('ref_axis',(0.,1.,0.));
#170=DIRECTION('center_axis',(0.,0.,1.));
#171=DIRECTION('ref_axis',(1.,0.,0.));
#172=DIRECTION('center_axis',(0.,0.,1.));
#173=DIRECTION('ref_axis',(1.,0.,0.));
#174=DIRECTION('',(0.,0.,-1.));
#175=DIRECTION('center_axis',(0.,0.,1.));
#176=DIRECTION('ref_axis',(1.,0.,0.));
#177=DIRECTION('center_axis',(1.,0.,0.));
#178=DIRECTION('ref_axis',(0.,0.,-1.));
#179=DIRECTION('center_axis',(-1.,0.,0.));
#180=DIRECTION('ref_axis',(0.,1.,0.));
#181=DIRECTION('center_axis',(1.,0.,0.));
#182=DIRECTION('ref_axis',(0.,1.,0.));
#183=DIRECTION('center_axis',(1.,0.,0.));
#184=DIRECTION('ref_axis',(0.,1.,0.));
#185=DIRECTION('',(-1.,0.,0.));
#186=DIRECTION('center_axis',(1.,0.,0.));
#187=DIRECTION('ref_axis',(0.,0.,-1.));
#188=CARTESIAN_POINT('',(0.,0.,0.));
#189=CARTESIAN_POINT('Origin',(0.,0.,0.));
#190=CARTESIAN_POINT('',(1.11022302462516E-15,-48.8,45.762102224439));
#191=CARTESIAN_POINT('',(-48.8,-4.9013638451294E-16,66.9));
#192=CARTESIAN_POINT('Ctrl Pts',(1.11022302462516E-15,-48.8,45.762102224439));
#193=CARTESIAN_POINT('Ctrl Pts',(3.25723509706852,-48.8,45.762102224439));
#194=CARTESIAN_POINT('Ctrl Pts',(6.53836976087886,-48.4702402145463,46.1206590898267));
#195=CARTESIAN_POINT('Ctrl Pts',(12.9412617514161,-47.1660706519087,47.4535683654658));
#196=CARTESIAN_POINT('Ctrl Pts',(16.0643097222959,-46.1924634017999,48.4225001915912));
#197=CARTESIAN_POINT('Ctrl Pts',(21.9938392417022,-43.6815445061712,50.6991558810178));
#198=CARTESIAN_POINT('Ctrl Pts',(24.8063818245257,-42.1419728362667,52.0053529754054));
#199=CARTESIAN_POINT('Ctrl Pts',(30.0033668193664,-38.6147696289502,54.6754257356943));
#200=CARTESIAN_POINT('Ctrl Pts',(32.3876464242097,-36.6259754195973,56.0380821127235));
#201=CARTESIAN_POINT('Ctrl Pts',(36.5879683996174,-32.4256534441896,58.5669549467865));
#202=CARTESIAN_POINT('Ctrl Pts',(38.5687978120437,-30.0627566051817,59.8327740383371));
#203=CARTESIAN_POINT('Ctrl Pts',(42.1070689357878,-24.865965612672,62.1724532083422));
#204=CARTESIAN_POINT('Ctrl Pts',(43.664669143706,-22.0316771933456,63.2451977161957));
#205=CARTESIAN_POINT('Ctrl Pts',(46.2001987906341,-16.0480485297193,65.021612054907));
#206=CARTESIAN_POINT('Ctrl Pts',(47.1802510038666,-12.8920576655399,65.7262817357573));
#207=CARTESIAN_POINT('Ctrl Pts',(48.480431200352,-6.46753634423967,66.6657350922091));
#208=CARTESIAN_POINT('Ctrl Pts',(48.8,-3.19881688576486,66.9));
#209=CARTESIAN_POINT('Ctrl Pts',(48.8,3.19881688576486,66.9));
#210=CARTESIAN_POINT('Ctrl Pts',(48.480431200352,6.46753634423968,66.6657350922091));
#211=CARTESIAN_POINT('Ctrl Pts',(47.1802510038666,12.8920576655399,65.7262817357572));
#212=CARTESIAN_POINT('Ctrl Pts',(46.2001987906341,16.0480485297194,65.021612054907));
#213=CARTESIAN_POINT('Ctrl Pts',(43.664669143706,22.0316771933456,63.2451977161957));
#214=CARTESIAN_POINT('Ctrl Pts',(42.1070689357878,24.865965612672,62.1724532083422));
#215=CARTESIAN_POINT('Ctrl Pts',(38.5687978120437,30.0627566051817,59.8327740383372));
#216=CARTESIAN_POINT('Ctrl Pts',(36.5879683996174,32.4256534441896,58.5669549467865));
#217=CARTESIAN_POINT('Ctrl Pts',(32.3876464242097,36.6259754195973,56.0380821127235));
#218=CARTESIAN_POINT('Ctrl Pts',(30.0033668193664,38.6147696289502,54.6754257356943));
#219=CARTESIAN_POINT('Ctrl Pts',(24.8063818245257,42.1419728362667,52.0053529754054));
#220=CARTESIAN_POINT('Ctrl Pts',(21.9938392417022,43.6815445061712,50.6991558810178));
#221=CARTESIAN_POINT('Ctrl Pts',(16.0643097222959,46.1924634017999,48.4225001915912));
#222=CARTESIAN_POINT('Ctrl Pts',(12.9412617514161,47.1660706519087,47.4535683654658));
#223=CARTESIAN_POINT('Ctrl Pts',(6.53836976087886,48.4702402145463,46.1206590898268));
#224=CARTESIAN_POINT('Ctrl Pts',(3.25723509706852,48.8,45.762102224439));
#225=CARTESIAN_POINT('Ctrl Pts',(-3.25723509706852,48.8,45.762102224439));
#226=CARTESIAN_POINT('Ctrl Pts',(-6.53836976087886,48.4702402145463,46.1206590898268));
#227=CARTESIAN_POINT('Ctrl Pts',(-12.9412617514161,47.1660706519087,47.4535683654658));
#228=CARTESIAN_POINT('Ctrl Pts',(-16.0643097222959,46.1924634017999,48.4225001915912));
#229=CARTESIAN_POINT('Ctrl Pts',(-21.9938392417022,43.6815445061712,50.6991558810178));
#230=CARTESIAN_POINT('Ctrl Pts',(-24.8063818245257,42.1419728362667,52.0053529754055));
#231=CARTESIAN_POINT('Ctrl Pts',(-30.0033668193664,38.6147696289502,54.6754257356943));
#232=CARTESIAN_POINT('Ctrl Pts',(-32.3876464242097,36.6259754195973,56.0380821127235));
#233=CARTESIAN_POINT('Ctrl Pts',(-36.5879683996174,32.4256534441896,58.5669549467865));
#234=CARTESIAN_POINT('Ctrl Pts',(-38.5687978120437,30.0627566051816,59.8327740383372));
#235=CARTESIAN_POINT('Ctrl Pts',(-42.1070689357878,24.865965612672,62.1724532083422));
#236=CARTESIAN_POINT('Ctrl Pts',(-43.664669143706,22.0316771933456,63.2451977161957));
#237=CARTESIAN_POINT('Ctrl Pts',(-46.2001987906341,16.0480485297194,65.021612054907));
#238=CARTESIAN_POINT('Ctrl Pts',(-47.1802510038666,12.89205766554,65.7262817357572));
#239=CARTESIAN_POINT('Ctrl Pts',(-48.480431200352,6.46753634423968,66.6657350922091));
#240=CARTESIAN_POINT('Ctrl Pts',(-48.8,3.19881688576487,66.9));
#241=CARTESIAN_POINT('Ctrl Pts',(-48.8,8.88178419700125E-15,66.9));
#242=CARTESIAN_POINT('Ctrl Pts',(-48.8,4.44089209850063E-15,66.9));
#243=CARTESIAN_POINT('Ctrl Pts',(-48.8,-3.19881688576485,66.9));
#244=CARTESIAN_POINT('Ctrl Pts',(-48.480431200352,-6.46753634423967,66.6657350922091));
#245=CARTESIAN_POINT('Ctrl Pts',(-47.1802510038666,-12.8920576655399,65.7262817357572));
#246=CARTESIAN_POINT('Ctrl Pts',(-46.2001987906341,-16.0480485297194,65.021612054907));
#247=CARTESIAN_POINT('Ctrl Pts',(-43.664669143706,-22.0316771933456,63.2451977161957));
#248=CARTESIAN_POINT('Ctrl Pts',(-42.1070689357878,-24.865965612672,62.1724532083422));
#249=CARTESIAN_POINT('Ctrl Pts',(-38.5687978120437,-30.0627566051816,59.8327740383372));
#250=CARTESIAN_POINT('Ctrl Pts',(-36.5879683996174,-32.4256534441896,58.5669549467865));
#251=CARTESIAN_POINT('Ctrl Pts',(-32.3876464242098,-36.6259754195973,56.0380821127235));
#252=CARTESIAN_POINT('Ctrl Pts',(-30.0033668193664,-38.6147696289502,54.6754257356943));
#253=CARTESIAN_POINT('Ctrl Pts',(-24.8063818245257,-42.1419728362667,52.0053529754055));
#254=CARTESIAN_POINT('Ctrl Pts',(-21.9938392417022,-43.6815445061712,50.6991558810178));
#255=CARTESIAN_POINT('Ctrl Pts',(-16.0643097222959,-46.1924634017999,48.4225001915912));
#256=CARTESIAN_POINT('Ctrl Pts',(-12.9412617514161,-47.1660706519087,47.4535683654658));
#257=CARTESIAN_POINT('Ctrl Pts',(-6.53836976087887,-48.4702402145463,46.1206590898268));
#258=CARTESIAN_POINT('Ctrl Pts',(-3.25723509706852,-48.8,45.762102224439));
#259=CARTESIAN_POINT('Ctrl Pts',(5.55111512312578E-16,-48.8,45.762102224439));
#260=CARTESIAN_POINT('',(-48.8,5.97627637983908E-15,145.));
#261=CARTESIAN_POINT('',(-48.8,-5.97627637983908E-15,0.));
#262=CARTESIAN_POINT('Origin',(0.,0.,145.));
#263=CARTESIAN_POINT('Origin',(0.,0.,0.));
#264=CARTESIAN_POINT('',(-145.,-66.9,-8.19288708629579E-15));
#265=CARTESIAN_POINT('Origin',(-145.,0.,0.));
#266=CARTESIAN_POINT('',(145.,-66.9,8.19288708629579E-15));
#267=CARTESIAN_POINT('',(0.,-66.9,-8.19288708629579E-15));
#268=CARTESIAN_POINT('Origin',(145.,0.,0.));
#269=CARTESIAN_POINT('Origin',(0.,0.,0.));
#270=CARTESIAN_POINT('',(-50.8,-6.22120573966855E-15,145.));
#271=CARTESIAN_POINT('Origin',(0.,0.,145.));
#272=CARTESIAN_POINT('',(-50.8,-5.88616043139717E-15,69.9));
#273=CARTESIAN_POINT('',(-50.8,-6.22120573966855E-15,0.));
#274=CARTESIAN_POINT('',(0.,-50.8,48.01426871254));
#275=CARTESIAN_POINT('Ctrl Pts',(0.,-50.8,48.01426871254));
#276=CARTESIAN_POINT('Ctrl Pts',(-3.38821589380991,-50.8,48.01426871254));
#277=CARTESIAN_POINT('Ctrl Pts',(-6.80277247958881,-50.4571863774607,48.3840512352888));
#278=CARTESIAN_POINT('Ctrl Pts',(-13.4676109107719,-49.1001918383591,49.7605789937372));
#279=CARTESIAN_POINT('Ctrl Pts',(-16.7192057375773,-48.0868489241215,50.7617871702855));
#280=CARTESIAN_POINT('Ctrl Pts',(-22.8930349267868,-45.4729201518948,53.1160719261731));
#281=CARTESIAN_POINT('Ctrl Pts',(-25.8216073503111,-43.8699883646393,54.467562277812));
#282=CARTESIAN_POINT('Ctrl Pts',(-31.2326411627129,-40.1976791812971,57.2314407319996));
#283=CARTESIAN_POINT('Ctrl Pts',(-33.7149470979703,-38.1271018705829,58.6425385915283));
#284=CARTESIAN_POINT('Ctrl Pts',(-38.0883535662189,-33.7536954023344,61.2623946832631));
#285=CARTESIAN_POINT('Ctrl Pts',(-40.1508567095588,-31.293142497051,62.5742692373768));
#286=CARTESIAN_POINT('Ctrl Pts',(-43.8345313424874,-25.8821545616197,64.9993385592704));
#287=CARTESIAN_POINT('Ctrl Pts',(-45.4558708178164,-22.9313115208379,66.1113676144677));
#288=CARTESIAN_POINT('Ctrl Pts',(-48.0948584587628,-16.702273376575,67.9528667964283));
#289=CARTESIAN_POINT('Ctrl Pts',(-49.1147138843243,-13.417167473667,68.6833651673115));
#290=CARTESIAN_POINT('Ctrl Pts',(-50.4675750486219,-6.73048079791063,69.6572010781857));
#291=CARTESIAN_POINT('Ctrl Pts',(-50.8,-3.32870410083323,69.9));
#292=CARTESIAN_POINT('Ctrl Pts',(-50.8,-6.66133814775094E-15,69.9));
#293=CARTESIAN_POINT('Ctrl Pts',(-50.8,-5.55111512312578E-15,69.9));
#294=CARTESIAN_POINT('Ctrl Pts',(-50.8,3.32870410083322,69.9));
#295=CARTESIAN_POINT('Ctrl Pts',(-50.4675750486219,6.73048079791061,69.6572010781857));
#296=CARTESIAN_POINT('Ctrl Pts',(-49.1147138843244,13.417167473667,68.6833651673115));
#297=CARTESIAN_POINT('Ctrl Pts',(-48.0948584587628,16.702273376575,67.9528667964284));
#298=CARTESIAN_POINT('Ctrl Pts',(-45.4558708178164,22.9313115208379,66.1113676144677));
#299=CARTESIAN_POINT('Ctrl Pts',(-43.8345313424874,25.8821545616197,64.9993385592704));
#300=CARTESIAN_POINT('Ctrl Pts',(-40.1508567095588,31.2931424970509,62.5742692373768));
#301=CARTESIAN_POINT('Ctrl Pts',(-38.0883535662189,33.7536954023343,61.2623946832631));
#302=CARTESIAN_POINT('Ctrl Pts',(-33.7149470979703,38.1271018705829,58.6425385915283));
#303=CARTESIAN_POINT('Ctrl Pts',(-31.2326411627129,40.1976791812971,57.2314407319996));
#304=CARTESIAN_POINT('Ctrl Pts',(-25.8216073503111,43.8699883646393,54.467562277812));
#305=CARTESIAN_POINT('Ctrl Pts',(-22.8930349267869,45.4729201518948,53.1160719261731));
#306=CARTESIAN_POINT('Ctrl Pts',(-16.7192057375773,48.0868489241214,50.7617871702856));
#307=CARTESIAN_POINT('Ctrl Pts',(-13.4676109107719,49.1001918383591,49.7605789937372));
#308=CARTESIAN_POINT('Ctrl Pts',(-6.80277247958882,50.4571863774607,48.3840512352888));
#309=CARTESIAN_POINT('Ctrl Pts',(-3.38821589380991,50.8,48.01426871254));
#310=CARTESIAN_POINT('Ctrl Pts',(3.3882158938099,50.8,48.01426871254));
#311=CARTESIAN_POINT('Ctrl Pts',(6.8027724795888,50.4571863774607,48.3840512352888));
#312=CARTESIAN_POINT('Ctrl Pts',(13.4676109107718,49.1001918383591,49.7605789937372));
#313=CARTESIAN_POINT('Ctrl Pts',(16.7192057375773,48.0868489241215,50.7617871702855));
#314=CARTESIAN_POINT('Ctrl Pts',(22.8930349267868,45.4729201518948,53.1160719261731));
#315=CARTESIAN_POINT('Ctrl Pts',(25.8216073503111,43.8699883646393,54.467562277812));
#316=CARTESIAN_POINT('Ctrl Pts',(31.2326411627129,40.1976791812971,57.2314407319996));
#317=CARTESIAN_POINT('Ctrl Pts',(33.7149470979703,38.1271018705829,58.6425385915283));
#318=CARTESIAN_POINT('Ctrl Pts',(38.0883535662189,33.7536954023344,61.2623946832631));
#319=CARTESIAN_POINT('Ctrl Pts',(40.1508567095587,31.293142497051,62.5742692373768));
#320=CARTESIAN_POINT('Ctrl Pts',(43.8345313424873,25.8821545616197,64.9993385592704));
#321=CARTESIAN_POINT('Ctrl Pts',(45.4558708178164,22.9313115208379,66.1113676144676));
#322=CARTESIAN_POINT('Ctrl Pts',(48.0948584587628,16.702273376575,67.9528667964283));
#323=CARTESIAN_POINT('Ctrl Pts',(49.1147138843243,13.417167473667,68.6833651673115));
#324=CARTESIAN_POINT('Ctrl Pts',(50.4675750486219,6.73048079791064,69.6572010781857));
#325=CARTESIAN_POINT('Ctrl Pts',(50.8,3.32870410083324,69.9));
#326=CARTESIAN_POINT('Ctrl Pts',(50.8,-3.32870410083321,69.9));
#327=CARTESIAN_POINT('Ctrl Pts',(50.4675750486219,-6.73048079791061,69.6572010781857));
#328=CARTESIAN_POINT('Ctrl Pts',(49.1147138843243,-13.417167473667,68.6833651673115));
#329=CARTESIAN_POINT('Ctrl Pts',(48.0948584587628,-16.702273376575,67.9528667964283));
#330=CARTESIAN_POINT('Ctrl Pts',(45.4558708178164,-22.9313115208379,66.1113676144677));
#331=CARTESIAN_POINT('Ctrl Pts',(43.8345313424874,-25.8821545616197,64.9993385592704));
#332=CARTESIAN_POINT('Ctrl Pts',(40.1508567095588,-31.2931424970509,62.5742692373768));
#333=CARTESIAN_POINT('Ctrl Pts',(38.0883535662189,-33.7536954023343,61.2623946832631));
#334=CARTESIAN_POINT('Ctrl Pts',(33.7149470979703,-38.1271018705829,58.6425385915283));
#335=CARTESIAN_POINT('Ctrl Pts',(31.2326411627129,-40.1976791812971,57.2314407319996));
#336=CARTESIAN_POINT('Ctrl Pts',(25.8216073503111,-43.8699883646393,54.467562277812));
#337=CARTESIAN_POINT('Ctrl Pts',(22.8930349267868,-45.4729201518948,53.1160719261731));
#338=CARTESIAN_POINT('Ctrl Pts',(16.7192057375773,-48.0868489241215,50.7617871702855));
#339=CARTESIAN_POINT('Ctrl Pts',(13.4676109107719,-49.1001918383591,49.7605789937372));
#340=CARTESIAN_POINT('Ctrl Pts',(6.80277247958883,-50.4571863774607,48.3840512352888));
#341=CARTESIAN_POINT('Ctrl Pts',(3.38821589380991,-50.8,48.01426871254));
#342=CARTESIAN_POINT('Ctrl Pts',(-2.22044604925031E-15,-50.8,48.01426871254));
#343=CARTESIAN_POINT('Origin',(0.,0.,145.));
#344=CARTESIAN_POINT('Origin',(-145.,0.,0.));
#345=CARTESIAN_POINT('',(-145.,-69.9,-8.56028112604E-15));
#346=CARTESIAN_POINT('Origin',(-145.,0.,0.));
#347=CARTESIAN_POINT('Origin',(0.,0.,0.));
#348=CARTESIAN_POINT('',(145.,-69.9,-8.56028112604E-15));
#349=CARTESIAN_POINT('Origin',(145.,0.,0.));
#350=CARTESIAN_POINT('',(0.,-69.9,-8.56028112604E-15));
#351=CARTESIAN_POINT('Origin',(145.,0.,0.));
#352=UNCERTAINTY_MEASURE_WITH_UNIT(LENGTH_MEASURE(0.01),#356,
'DISTANCE_ACCURACY_VALUE',
'Maximum model space distance between geometric entities at asserted c
onnectivities');
#353=UNCERTAINTY_MEASURE_WITH_UNIT(LENGTH_MEASURE(0.01),#356,
'DISTANCE_ACCURACY_VALUE',
'Maximum model space distance between geometric entities at asserted c
onnectivities');
#354=(
GEOMETRIC_REPRESENTATION_CONTEXT(3)
GLOBAL_UNCERTAINTY_ASSIGNED_CONTEXT((#352))
GLOBAL_UNIT_ASSIGNED_CONTEXT((#356,#358,#359))
REPRESENTATION_CONTEXT('','3D')
);
#355=(
GEOMETRIC_REPRESENTATION_CONTEXT(3)
GLOBAL_UNCERTAINTY_ASSIGNED_CONTEXT((#353))
GLOBAL_UNIT_ASSIGNED_CONTEXT((#356,#358,#359))
REPRESENTATION_CONTEXT('','3D')
);
#356=(
LENGTH_UNIT()
NAMED_UNIT(*)
SI_UNIT(.MILLI.,.METRE.)
);
#357=(
LENGTH_UNIT()
NAMED_UNIT(*)
SI_UNIT(.CENTI.,.METRE.)
);
#358=(
NAMED_UNIT(*)
PLANE_ANGLE_UNIT()
SI_UNIT($,.RADIAN.)
);
#359=(
NAMED_UNIT(*)
SI_UNIT($,.STERADIAN.)
SOLID_ANGLE_UNIT()
);
#360=SHAPE_DEFINITION_REPRESENTATION(#361,#362);
#361=PRODUCT_DEFINITION_SHAPE('',$,#364);
#362=SHAPE_REPRESENTATION('',(#142),#354);
#363=PRODUCT_DEFINITION_CONTEXT('part definition',#368,'design');
#364=PRODUCT_DEFINITION('D8(R) 50\X\D740','D8(R) 50\X\D740',#365,#363);
#365=PRODUCT_DEFINITION_FORMATION('',$,#370);
#366=PRODUCT_RELATED_PRODUCT_CATEGORY('D8(R) 50\X\D740','D8(R) 50\X\D7
40',(#370));
#367=APPLICATION_PROTOCOL_DEFINITION('international standard',
'automotive_design',2009,#368);
#368=APPLICATION_CONTEXT(
'Core Data for Automotive Mechanical Design Process');
#369=PRODUCT_CONTEXT('part definition',#368,'mechanical');
#370=PRODUCT('D8(R) 50\X\D740','D8(R) 50\X\D740',$,(#369));
#371=PRESENTATION_STYLE_ASSIGNMENT((#372));
#372=SURFACE_STYLE_USAGE(.BOTH.,#375);
#373=SURFACE_STYLE_RENDERING_WITH_PROPERTIES($,#379,(#374));
#374=SURFACE_STYLE_TRANSPARENT(0.);
#375=SURFACE_SIDE_STYLE('',(#376,#373));
#376=SURFACE_STYLE_FILL_AREA(#377);
#377=FILL_AREA_STYLE('',(#378));
#378=FILL_AREA_STYLE_COLOUR('',#379);
#379=COLOUR_RGB('',0.749019607843137,0.749019607843137,0.749019607843137);
ENDSEC;
END-ISO-10303-21;
