ISO-10303-21;
HEADER;
/* Generated by software containing ST-Developer
 * from STEP Tools, Inc. (www.steptools.com) 
 */

FILE_DESCRIPTION(
/* description */ (''),
/* implementation_level */ '2;1');

FILE_NAME(
/* name */ 
'\\\\Tske00\\w\\Work\\TOSTE\\\X2\7D99624B\X0\\\02_\X2\6EB663A5\X0\\\\X2\6EB663A5752830C130FC30BA\X0\\\
D8(R)\\D8(R) 50\X\D730.stp',
/* time_stamp */ '2022-04-12T17:50:44+09:00',
/* author */ ('3dcad-eng'),
/* organization */ (''),
/* preprocessor_version */ 'ST-DEVELOPER v18.1',
/* originating_system */ 'Autodesk Inventor 2022',
/* authorisation */ '');

FILE_SCHEMA (('AUTOMOTIVE_DESIGN { 1 0 10303 214 3 1 1 }'));
ENDSEC;

DATA;
#10=MECHANICAL_DESIGN_GEOMETRIC_PRESENTATION_REPRESENTATION('',(#13),#355);
#11=SHAPE_REPRESENTATION_RELATIONSHIP('SRR','None',#362,#12);
#12=ADVANCED_BREP_SHAPE_REPRESENTATION('',(#14),#354);
#13=STYLED_ITEM('',(#371),#14);
#14=MANIFOLD_SOLID_BREP('\X2\30BD30EA30C330C9\X0\1',#123);
#15=PLANE('',#150);
#16=PLANE('',#151);
#17=PLANE('',#155);
#18=FACE_BOUND('',#32,.T.);
#19=FACE_BOUND('',#35,.T.);
#20=FACE_BOUND('',#37,.T.);
#21=FACE_BOUND('',#39,.T.);
#22=FACE_BOUND('',#41,.T.);
#23=FACE_OUTER_BOUND('',#30,.T.);
#24=FACE_OUTER_BOUND('',#31,.T.);
#25=FACE_OUTER_BOUND('',#33,.T.);
#26=FACE_OUTER_BOUND('',#34,.T.);
#27=FACE_OUTER_BOUND('',#36,.T.);
#28=FACE_OUTER_BOUND('',#38,.T.);
#29=FACE_OUTER_BOUND('',#40,.T.);
#30=EDGE_LOOP('',(#84,#85,#86,#87,#88));
#31=EDGE_LOOP('',(#89,#90,#91,#92));
#32=EDGE_LOOP('',(#93,#94));
#33=EDGE_LOOP('',(#95,#96,#97,#98,#99));
#34=EDGE_LOOP('',(#100));
#35=EDGE_LOOP('',(#101));
#36=EDGE_LOOP('',(#102));
#37=EDGE_LOOP('',(#103));
#38=EDGE_LOOP('',(#104,#105,#106,#107));
#39=EDGE_LOOP('',(#108,#109));
#40=EDGE_LOOP('',(#110));
#41=EDGE_LOOP('',(#111));
#42=CIRCLE('',#144,36.15);
#43=CIRCLE('',#146,66.9);
#44=CIRCLE('',#147,66.9);
#45=CIRCLE('',#149,38.15);
#46=CIRCLE('',#152,69.9);
#47=CIRCLE('',#154,69.9);
#48=LINE('',#261,#52);
#49=LINE('',#267,#53);
#50=LINE('',#273,#54);
#51=LINE('',#350,#55);
#52=VECTOR('',#160,36.15);
#53=VECTOR('',#167,66.9);
#54=VECTOR('',#174,38.15);
#55=VECTOR('',#185,69.9);
#56=B_SPLINE_CURVE_WITH_KNOTS('',3,(#192,#193,#194,#195,#196,#197,#198,
#199,#200,#201,#202,#203,#204,#205,#206,#207,#208,#209,#210,#211,#212,#213,
#214,#215,#216,#217,#218,#219,#220,#221,#222,#223,#224,#225,#226,#227,#228,
#229,#230,#231,#232,#233,#234,#235,#236,#237,#238,#239,#240,#241),
 .UNSPECIFIED.,.F.,.F.,(4,2,2,2,2,2,2,2,2,2,2,2,2,2,2,2,2,2,2,2,2,2,2,2,
4),(0.,0.698923735113488,1.39784747022698,2.09677120534047,2.79569494045395,
3.49188954756531,4.18808415467667,4.88427876178803,5.58047336889939,6.27666797601074,
6.9728625831221,7.66905719023346,8.36525179734482,9.0641755324583,9.76309926757179,
10.4620230026853,11.1609467377988,11.8598704729123,12.5587942080257,13.2577179431392,
13.9566416782527,14.6528362853641,15.3490308924754,16.0452254995868,16.7414201066982),
 .UNSPECIFIED.);
#57=B_SPLINE_CURVE_WITH_KNOTS('',3,(#242,#243,#244,#245,#246,#247,#248,
#249,#250,#251,#252,#253,#254,#255,#256,#257,#258,#259),.UNSPECIFIED.,.F.,
 .F.,(4,2,2,2,2,2,2,2,4),(16.7414201066982,17.4376147138095,18.1338093209209,
18.8300039280322,19.5261985351436,20.2251222702571,20.9240460053706,21.6229697404841,
22.3218934755975),.UNSPECIFIED.);
#58=B_SPLINE_CURVE_WITH_KNOTS('',3,(#275,#276,#277,#278,#279,#280,#281,
#282,#283,#284,#285,#286,#287,#288,#289,#290,#291,#292),.UNSPECIFIED.,.F.,
 .F.,(4,2,2,2,2,2,2,2,4),(0.,0.738085753263636,1.47617150652727,2.21425725979091,
2.95234301305454,3.68740823311551,4.42247345317647,5.15753867323744,5.8926038932984),
 .UNSPECIFIED.);
#59=B_SPLINE_CURVE_WITH_KNOTS('',3,(#293,#294,#295,#296,#297,#298,#299,
#300,#301,#302,#303,#304,#305,#306,#307,#308,#309,#310,#311,#312,#313,#314,
#315,#316,#317,#318,#319,#320,#321,#322,#323,#324,#325,#326,#327,#328,#329,
#330,#331,#332,#333,#334,#335,#336,#337,#338,#339,#340,#341,#342),
 .UNSPECIFIED.,.F.,.F.,(4,2,2,2,2,2,2,2,2,2,2,2,2,2,2,2,2,2,2,2,2,2,2,2,
4),(5.8926038932984,6.62766911335937,7.36273433342033,8.09779955348129,
8.83286477354226,9.5709505268059,10.3090362800695,11.0471220333332,11.7852077865968,
12.5232935398604,13.2613792931241,13.9994650463877,14.7375507996514,15.4726160197123,
16.2076812397733,16.9427464598342,17.6778116798952,18.4128768999562,19.1479421200171,
19.8830073400781,20.6180725601391,21.3561583134027,22.0942440666663,22.83232981993,
23.5704155731936),.UNSPECIFIED.);
#60=VERTEX_POINT('',#190);
#61=VERTEX_POINT('',#191);
#62=VERTEX_POINT('',#260);
#63=VERTEX_POINT('',#264);
#64=VERTEX_POINT('',#266);
#65=VERTEX_POINT('',#270);
#66=VERTEX_POINT('',#272);
#67=VERTEX_POINT('',#274);
#68=VERTEX_POINT('',#345);
#69=VERTEX_POINT('',#348);
#70=EDGE_CURVE('',#60,#61,#56,.T.);
#71=EDGE_CURVE('',#61,#60,#57,.T.);
#72=EDGE_CURVE('',#61,#62,#48,.T.);
#73=EDGE_CURVE('',#62,#62,#42,.T.);
#74=EDGE_CURVE('',#63,#63,#43,.T.);
#75=EDGE_CURVE('',#63,#64,#49,.T.);
#76=EDGE_CURVE('',#64,#64,#44,.T.);
#77=EDGE_CURVE('',#65,#65,#45,.T.);
#78=EDGE_CURVE('',#65,#66,#50,.T.);
#79=EDGE_CURVE('',#67,#66,#58,.T.);
#80=EDGE_CURVE('',#66,#67,#59,.T.);
#81=EDGE_CURVE('',#68,#68,#46,.T.);
#82=EDGE_CURVE('',#69,#69,#47,.T.);
#83=EDGE_CURVE('',#69,#68,#51,.T.);
#84=ORIENTED_EDGE('',*,*,#70,.F.);
#85=ORIENTED_EDGE('',*,*,#71,.F.);
#86=ORIENTED_EDGE('',*,*,#72,.T.);
#87=ORIENTED_EDGE('',*,*,#73,.F.);
#88=ORIENTED_EDGE('',*,*,#72,.F.);
#89=ORIENTED_EDGE('',*,*,#74,.F.);
#90=ORIENTED_EDGE('',*,*,#75,.T.);
#91=ORIENTED_EDGE('',*,*,#76,.F.);
#92=ORIENTED_EDGE('',*,*,#75,.F.);
#93=ORIENTED_EDGE('',*,*,#70,.T.);
#94=ORIENTED_EDGE('',*,*,#71,.T.);
#95=ORIENTED_EDGE('',*,*,#77,.F.);
#96=ORIENTED_EDGE('',*,*,#78,.T.);
#97=ORIENTED_EDGE('',*,*,#79,.F.);
#98=ORIENTED_EDGE('',*,*,#80,.F.);
#99=ORIENTED_EDGE('',*,*,#78,.F.);
#100=ORIENTED_EDGE('',*,*,#77,.T.);
#101=ORIENTED_EDGE('',*,*,#73,.T.);
#102=ORIENTED_EDGE('',*,*,#81,.T.);
#103=ORIENTED_EDGE('',*,*,#74,.T.);
#104=ORIENTED_EDGE('',*,*,#82,.F.);
#105=ORIENTED_EDGE('',*,*,#83,.T.);
#106=ORIENTED_EDGE('',*,*,#81,.F.);
#107=ORIENTED_EDGE('',*,*,#83,.F.);
#108=ORIENTED_EDGE('',*,*,#79,.T.);
#109=ORIENTED_EDGE('',*,*,#80,.T.);
#110=ORIENTED_EDGE('',*,*,#82,.T.);
#111=ORIENTED_EDGE('',*,*,#76,.T.);
#112=CYLINDRICAL_SURFACE('',#143,36.15);
#113=CYLINDRICAL_SURFACE('',#145,66.9);
#114=CYLINDRICAL_SURFACE('',#148,38.15);
#115=CYLINDRICAL_SURFACE('',#153,69.9);
#116=ADVANCED_FACE('',(#23),#112,.F.);
#117=ADVANCED_FACE('',(#24,#18),#113,.F.);
#118=ADVANCED_FACE('',(#25),#114,.T.);
#119=ADVANCED_FACE('',(#26,#19),#15,.T.);
#120=ADVANCED_FACE('',(#27,#20),#16,.F.);
#121=ADVANCED_FACE('',(#28,#21),#115,.T.);
#122=ADVANCED_FACE('',(#29,#22),#17,.T.);
#123=CLOSED_SHELL('',(#116,#117,#118,#119,#120,#121,#122));
#124=DERIVED_UNIT_ELEMENT(#126,1.);
#125=DERIVED_UNIT_ELEMENT(#357,-3.);
#126=(
MASS_UNIT()
NAMED_UNIT(*)
SI_UNIT($,.GRAM.)
);
#127=DERIVED_UNIT((#124,#125));
#128=MEASURE_REPRESENTATION_ITEM('density measure',
POSITIVE_RATIO_MEASURE(1.),#127);
#129=PROPERTY_DEFINITION_REPRESENTATION(#134,#131);
#130=PROPERTY_DEFINITION_REPRESENTATION(#135,#132);
#131=REPRESENTATION('material name',(#133),#354);
#132=REPRESENTATION('density',(#128),#354);
#133=DESCRIPTIVE_REPRESENTATION_ITEM('\X2\4E00822C\X0\','\X2\4E00822C\X0\');
#134=PROPERTY_DEFINITION('material property','material name',#364);
#135=PROPERTY_DEFINITION('material property','density of part',#364);
#136=DATE_TIME_ROLE('creation_date');
#137=APPLIED_DATE_AND_TIME_ASSIGNMENT(#138,#136,(#364));
#138=DATE_AND_TIME(#139,#140);
#139=CALENDAR_DATE(2022,31,3);
#140=LOCAL_TIME(0,0,0.,#141);
#141=COORDINATED_UNIVERSAL_TIME_OFFSET(0,0,.BEHIND.);
#142=AXIS2_PLACEMENT_3D('placement',#188,#156,#157);
#143=AXIS2_PLACEMENT_3D('',#189,#158,#159);
#144=AXIS2_PLACEMENT_3D('',#262,#161,#162);
#145=AXIS2_PLACEMENT_3D('',#263,#163,#164);
#146=AXIS2_PLACEMENT_3D('',#265,#165,#166);
#147=AXIS2_PLACEMENT_3D('',#268,#168,#169);
#148=AXIS2_PLACEMENT_3D('',#269,#170,#171);
#149=AXIS2_PLACEMENT_3D('',#271,#172,#173);
#150=AXIS2_PLACEMENT_3D('',#343,#175,#176);
#151=AXIS2_PLACEMENT_3D('',#344,#177,#178);
#152=AXIS2_PLACEMENT_3D('',#346,#179,#180);
#153=AXIS2_PLACEMENT_3D('',#347,#181,#182);
#154=AXIS2_PLACEMENT_3D('',#349,#183,#184);
#155=AXIS2_PLACEMENT_3D('',#351,#186,#187);
#156=DIRECTION('axis',(0.,0.,1.));
#157=DIRECTION('refdir',(1.,0.,0.));
#158=DIRECTION('center_axis',(0.,0.,1.));
#159=DIRECTION('ref_axis',(1.,0.,0.));
#160=DIRECTION('',(0.,0.,1.));
#161=DIRECTION('center_axis',(0.,0.,-1.));
#162=DIRECTION('ref_axis',(1.,0.,0.));
#163=DIRECTION('center_axis',(1.,0.,0.));
#164=DIRECTION('ref_axis',(0.,1.,0.));
#165=DIRECTION('center_axis',(1.,0.,0.));
#166=DIRECTION('ref_axis',(0.,1.,0.));
#167=DIRECTION('',(1.,0.,0.));
#168=DIRECTION('center_axis',(-1.,0.,0.));
#169=DIRECTION('ref_axis',(0.,1.,0.));
#170=DIRECTION('center_axis',(0.,0.,1.));
#171=DIRECTION('ref_axis',(1.,0.,0.));
#172=DIRECTION('center_axis',(0.,0.,1.));
#173=DIRECTION('ref_axis',(1.,0.,0.));
#174=DIRECTION('',(0.,0.,-1.));
#175=DIRECTION('center_axis',(0.,0.,1.));
#176=DIRECTION('ref_axis',(1.,0.,0.));
#177=DIRECTION('center_axis',(1.,0.,0.));
#178=DIRECTION('ref_axis',(0.,0.,-1.));
#179=DIRECTION('center_axis',(-1.,0.,0.));
#180=DIRECTION('ref_axis',(0.,1.,0.));
#181=DIRECTION('center_axis',(1.,0.,0.));
#182=DIRECTION('ref_axis',(0.,1.,0.));
#183=DIRECTION('center_axis',(1.,0.,0.));
#184=DIRECTION('ref_axis',(0.,1.,0.));
#185=DIRECTION('',(-1.,0.,0.));
#186=DIRECTION('center_axis',(1.,0.,0.));
#187=DIRECTION('ref_axis',(0.,0.,-1.));
#188=CARTESIAN_POINT('',(0.,0.,0.));
#189=CARTESIAN_POINT('Origin',(0.,0.,0.));
#190=CARTESIAN_POINT('',(-5.55111512312578E-16,-36.15,56.2919843316968));
#191=CARTESIAN_POINT('',(-36.15,5.62008472104051E-16,66.9));
#192=CARTESIAN_POINT('Ctrl Pts',(-5.55111512312578E-16,-36.15,56.2919843316968));
#193=CARTESIAN_POINT('Ctrl Pts',(2.32974578371163,-36.15,56.2919843316968));
#194=CARTESIAN_POINT('Ctrl Pts',(4.71745398279012,-35.9213015275283,56.4409192183313));
#195=CARTESIAN_POINT('Ctrl Pts',(9.42947865859999,-34.9811264763135,57.0283969123304));
#196=CARTESIAN_POINT('Ctrl Pts',(11.7540214719689,-34.2700768969282,57.465807031902));
#197=CARTESIAN_POINT('Ctrl Pts',(16.1860572755976,-32.4130693964524,58.533322277032));
#198=CARTESIAN_POINT('Ctrl Pts',(18.297977137506,-31.2656237590668,59.1628365186735));
#199=CARTESIAN_POINT('Ctrl Pts',(22.1952554444724,-28.6308545602953,60.4818536474103));
#200=CARTESIAN_POINT('Ctrl Pts',(23.9807223316289,-27.1430979481585,61.1701707886155));
#201=CARTESIAN_POINT('Ctrl Pts',(27.1369237925141,-23.9868964872733,62.4751433711602));
#202=CARTESIAN_POINT('Ctrl Pts',(28.6237489973552,-22.2045382407828,63.1407259315679));
#203=CARTESIAN_POINT('Ctrl Pts',(31.2609231660501,-18.3061521986736,64.3791703988422));
#204=CARTESIAN_POINT('Ctrl Pts',(32.4114730716903,-16.1899762874752,64.9511380018057));
#205=CARTESIAN_POINT('Ctrl Pts',(34.2721917854612,-11.7488647983527,65.8993918357951));
#206=CARTESIAN_POINT('Ctrl Pts',(34.9838531885197,-9.41958424919987,66.2759355520642));
#207=CARTESIAN_POINT('Ctrl Pts',(35.9229255460627,-4.70552564364559,66.7763897583754));
#208=CARTESIAN_POINT('Ctrl Pts',(36.15,-2.32064869037119,66.9));
#209=CARTESIAN_POINT('Ctrl Pts',(36.15,2.32064869037119,66.9));
#210=CARTESIAN_POINT('Ctrl Pts',(35.9229255460627,4.70552564364559,66.7763897583754));
#211=CARTESIAN_POINT('Ctrl Pts',(34.9838531885197,9.41958424919987,66.2759355520642));
#212=CARTESIAN_POINT('Ctrl Pts',(34.2721917854612,11.7488647983527,65.8993918357951));
#213=CARTESIAN_POINT('Ctrl Pts',(32.4114730716903,16.1899762874752,64.9511380018057));
#214=CARTESIAN_POINT('Ctrl Pts',(31.2609231660501,18.3061521986736,64.3791703988422));
#215=CARTESIAN_POINT('Ctrl Pts',(28.6237489973552,22.2045382407828,63.1407259315679));
#216=CARTESIAN_POINT('Ctrl Pts',(27.1369237925141,23.9868964872733,62.4751433711602));
#217=CARTESIAN_POINT('Ctrl Pts',(23.9807223316289,27.1430979481585,61.1701707886156));
#218=CARTESIAN_POINT('Ctrl Pts',(22.1952554444724,28.6308545602953,60.4818536474103));
#219=CARTESIAN_POINT('Ctrl Pts',(18.297977137506,31.2656237590668,59.1628365186735));
#220=CARTESIAN_POINT('Ctrl Pts',(16.1860572755976,32.4130693964524,58.533322277032));
#221=CARTESIAN_POINT('Ctrl Pts',(11.7540214719689,34.2700768969283,57.465807031902));
#222=CARTESIAN_POINT('Ctrl Pts',(9.42947865859999,34.9811264763135,57.0283969123304));
#223=CARTESIAN_POINT('Ctrl Pts',(4.71745398279012,35.9213015275283,56.4409192183313));
#224=CARTESIAN_POINT('Ctrl Pts',(2.32974578371163,36.15,56.2919843316968));
#225=CARTESIAN_POINT('Ctrl Pts',(-2.32974578371163,36.15,56.2919843316968));
#226=CARTESIAN_POINT('Ctrl Pts',(-4.71745398279012,35.9213015275283,56.4409192183313));
#227=CARTESIAN_POINT('Ctrl Pts',(-9.42947865859999,34.9811264763135,57.0283969123304));
#228=CARTESIAN_POINT('Ctrl Pts',(-11.7540214719689,34.2700768969283,57.465807031902));
#229=CARTESIAN_POINT('Ctrl Pts',(-16.1860572755976,32.4130693964523,58.533322277032));
#230=CARTESIAN_POINT('Ctrl Pts',(-18.297977137506,31.2656237590668,59.1628365186735));
#231=CARTESIAN_POINT('Ctrl Pts',(-22.1952554444724,28.6308545602953,60.4818536474103));
#232=CARTESIAN_POINT('Ctrl Pts',(-23.9807223316289,27.1430979481585,61.1701707886156));
#233=CARTESIAN_POINT('Ctrl Pts',(-27.1369237925141,23.9868964872733,62.4751433711602));
#234=CARTESIAN_POINT('Ctrl Pts',(-28.6237489973552,22.2045382407828,63.1407259315679));
#235=CARTESIAN_POINT('Ctrl Pts',(-31.2609231660501,18.3061521986736,64.3791703988422));
#236=CARTESIAN_POINT('Ctrl Pts',(-32.4114730716903,16.1899762874752,64.9511380018057));
#237=CARTESIAN_POINT('Ctrl Pts',(-34.2721917854612,11.7488647983527,65.8993918357951));
#238=CARTESIAN_POINT('Ctrl Pts',(-34.9838531885197,9.41958424919986,66.2759355520642));
#239=CARTESIAN_POINT('Ctrl Pts',(-35.9229255460627,4.70552564364558,66.7763897583754));
#240=CARTESIAN_POINT('Ctrl Pts',(-36.15,2.32064869037119,66.9));
#241=CARTESIAN_POINT('Ctrl Pts',(-36.15,4.9960036108132E-15,66.9));
#242=CARTESIAN_POINT('Ctrl Pts',(-36.15,4.9960036108132E-15,66.9));
#243=CARTESIAN_POINT('Ctrl Pts',(-36.15,-2.32064869037118,66.9));
#244=CARTESIAN_POINT('Ctrl Pts',(-35.9229255460627,-4.70552564364557,66.7763897583754));
#245=CARTESIAN_POINT('Ctrl Pts',(-34.9838531885197,-9.41958424919984,66.2759355520642));
#246=CARTESIAN_POINT('Ctrl Pts',(-34.2721917854612,-11.7488647983527,65.8993918357951));
#247=CARTESIAN_POINT('Ctrl Pts',(-32.4114730716903,-16.1899762874751,64.9511380018057));
#248=CARTESIAN_POINT('Ctrl Pts',(-31.2609231660501,-18.3061521986736,64.3791703988422));
#249=CARTESIAN_POINT('Ctrl Pts',(-28.6237489973552,-22.2045382407828,63.1407259315679));
#250=CARTESIAN_POINT('Ctrl Pts',(-27.1369237925141,-23.9868964872733,62.4751433711602));
#251=CARTESIAN_POINT('Ctrl Pts',(-23.9807223316289,-27.1430979481585,61.1701707886155));
#252=CARTESIAN_POINT('Ctrl Pts',(-22.1952554444724,-28.6308545602953,60.4818536474103));
#253=CARTESIAN_POINT('Ctrl Pts',(-18.297977137506,-31.2656237590668,59.1628365186735));
#254=CARTESIAN_POINT('Ctrl Pts',(-16.1860572755976,-32.4130693964524,58.533322277032));
#255=CARTESIAN_POINT('Ctrl Pts',(-11.7540214719689,-34.2700768969283,57.465807031902));
#256=CARTESIAN_POINT('Ctrl Pts',(-9.42947865859996,-34.9811264763135,57.0283969123304));
#257=CARTESIAN_POINT('Ctrl Pts',(-4.7174539827901,-35.9213015275283,56.4409192183313));
#258=CARTESIAN_POINT('Ctrl Pts',(-2.32974578371162,-36.15,56.2919843316968));
#259=CARTESIAN_POINT('Ctrl Pts',(5.55111512312578E-16,-36.15,56.2919843316968));
#260=CARTESIAN_POINT('',(-36.15,4.42709817891768E-15,145.));
#261=CARTESIAN_POINT('',(-36.15,-4.42709817891768E-15,0.));
#262=CARTESIAN_POINT('Origin',(0.,0.,145.));
#263=CARTESIAN_POINT('Origin',(0.,0.,0.));
#264=CARTESIAN_POINT('',(-145.,-66.9,-8.19288708629579E-15));
#265=CARTESIAN_POINT('Origin',(-145.,0.,0.));
#266=CARTESIAN_POINT('',(145.,-66.9,8.19288708629579E-15));
#267=CARTESIAN_POINT('',(0.,-66.9,-8.19288708629579E-15));
#268=CARTESIAN_POINT('Origin',(145.,0.,0.));
#269=CARTESIAN_POINT('Origin',(0.,0.,0.));
#270=CARTESIAN_POINT('',(-38.15,-4.67202753874715E-15,145.));
#271=CARTESIAN_POINT('Origin',(0.,0.,145.));
#272=CARTESIAN_POINT('',(-38.15,-4.2789040624676E-15,69.9));
#273=CARTESIAN_POINT('',(-38.15,-4.67202753874715E-15,0.));
#274=CARTESIAN_POINT('',(5.55111512312578E-16,-38.15,58.5712173341139));
#275=CARTESIAN_POINT('Ctrl Pts',(5.55111512312578E-16,-38.15,58.5712173341139));
#276=CARTESIAN_POINT('Ctrl Pts',(-2.46028584421212,-38.15,58.5712173341139));
#277=CARTESIAN_POINT('Ctrl Pts',(-4.98109809632529,-37.9083352190761,58.7308561696727));
#278=CARTESIAN_POINT('Ctrl Pts',(-9.9547493434934,-36.9155276941313,59.3599120501401));
#279=CARTESIAN_POINT('Ctrl Pts',(-12.4078359126973,-36.1648419205345,59.8280921400082));
#280=CARTESIAN_POINT('Ctrl Pts',(-17.0843798940204,-34.2048902575499,60.9698415890175));
#281=CARTESIAN_POINT('Ctrl Pts',(-19.3125263158301,-32.994052410527,61.6427702261957));
#282=CARTESIAN_POINT('Ctrl Pts',(-23.4242257905803,-30.2140168480354,63.0519769791489));
#283=CARTESIAN_POINT('Ctrl Pts',(-25.3078944899784,-28.6443529145552,63.7869976079523));
#284=CARTESIAN_POINT('Ctrl Pts',(-28.6375258735195,-25.3147215310141,65.1798909322563));
#285=CARTESIAN_POINT('Ctrl Pts',(-30.2061520013315,-23.4344980680274,65.890057457246));
#286=CARTESIAN_POINT('Ctrl Pts',(-32.9888344409539,-19.321597270057,67.2112434809516));
#287=CARTESIAN_POINT('Ctrl Pts',(-34.2031019113366,-17.0887589854279,67.8213170125663));
#288=CARTESIAN_POINT('Ctrl Pts',(-36.1671641308509,-12.4021829654796,68.8327145519954));
#289=CARTESIAN_POINT('Ctrl Pts',(-36.9185353870352,-9.94384386170692,69.2343207910923));
#290=CARTESIAN_POINT('Ctrl Pts',(-37.9101321264653,-4.96791385339769,69.768123366721));
#291=CARTESIAN_POINT('Ctrl Pts',(-38.15,-2.45021740020322,69.9));
#292=CARTESIAN_POINT('Ctrl Pts',(-38.15,-4.9960036108132E-15,69.9));
#293=CARTESIAN_POINT('Ctrl Pts',(-38.15,-4.44089209850063E-15,69.9));
#294=CARTESIAN_POINT('Ctrl Pts',(-38.15,2.45021740020321,69.9));
#295=CARTESIAN_POINT('Ctrl Pts',(-37.9101321264653,4.96791385339768,69.768123366721));
#296=CARTESIAN_POINT('Ctrl Pts',(-36.9185353870352,9.9438438617069,69.2343207910923));
#297=CARTESIAN_POINT('Ctrl Pts',(-36.167164130851,12.4021829654796,68.8327145519954));
#298=CARTESIAN_POINT('Ctrl Pts',(-34.2031019113367,17.0887589854279,67.8213170125663));
#299=CARTESIAN_POINT('Ctrl Pts',(-32.9888344409539,19.321597270057,67.2112434809517));
#300=CARTESIAN_POINT('Ctrl Pts',(-30.2061520013316,23.4344980680274,65.890057457246));
#301=CARTESIAN_POINT('Ctrl Pts',(-28.6375258735195,25.3147215310141,65.1798909322563));
#302=CARTESIAN_POINT('Ctrl Pts',(-25.3078944899784,28.6443529145552,63.7869976079523));
#303=CARTESIAN_POINT('Ctrl Pts',(-23.4242257905803,30.2140168480354,63.0519769791489));
#304=CARTESIAN_POINT('Ctrl Pts',(-19.3125263158301,32.994052410527,61.6427702261957));
#305=CARTESIAN_POINT('Ctrl Pts',(-17.0843798940204,34.2048902575499,60.9698415890175));
#306=CARTESIAN_POINT('Ctrl Pts',(-12.4078359126973,36.1648419205345,59.8280921400082));
#307=CARTESIAN_POINT('Ctrl Pts',(-9.95474934349339,36.9155276941313,59.3599120501401));
#308=CARTESIAN_POINT('Ctrl Pts',(-4.98109809632529,37.9083352190761,58.7308561696727));
#309=CARTESIAN_POINT('Ctrl Pts',(-2.46028584421212,38.15,58.5712173341139));
#310=CARTESIAN_POINT('Ctrl Pts',(2.46028584421212,38.15,58.5712173341139));
#311=CARTESIAN_POINT('Ctrl Pts',(4.98109809632529,37.9083352190761,58.7308561696727));
#312=CARTESIAN_POINT('Ctrl Pts',(9.9547493434934,36.9155276941313,59.3599120501401));
#313=CARTESIAN_POINT('Ctrl Pts',(12.4078359126973,36.1648419205345,59.8280921400082));
#314=CARTESIAN_POINT('Ctrl Pts',(17.0843798940204,34.2048902575499,60.9698415890175));
#315=CARTESIAN_POINT('Ctrl Pts',(19.3125263158301,32.994052410527,61.6427702261957));
#316=CARTESIAN_POINT('Ctrl Pts',(23.4242257905803,30.2140168480354,63.0519769791489));
#317=CARTESIAN_POINT('Ctrl Pts',(25.3078944899784,28.6443529145552,63.7869976079523));
#318=CARTESIAN_POINT('Ctrl Pts',(28.6375258735195,25.3147215310141,65.1798909322563));
#319=CARTESIAN_POINT('Ctrl Pts',(30.2061520013315,23.4344980680274,65.890057457246));
#320=CARTESIAN_POINT('Ctrl Pts',(32.9888344409539,19.321597270057,67.2112434809516));
#321=CARTESIAN_POINT('Ctrl Pts',(34.2031019113366,17.0887589854279,67.8213170125663));
#322=CARTESIAN_POINT('Ctrl Pts',(36.1671641308509,12.4021829654797,68.8327145519954));
#323=CARTESIAN_POINT('Ctrl Pts',(36.9185353870352,9.94384386170692,69.2343207910923));
#324=CARTESIAN_POINT('Ctrl Pts',(37.9101321264653,4.96791385339768,69.768123366721));
#325=CARTESIAN_POINT('Ctrl Pts',(38.15,2.45021740020322,69.9));
#326=CARTESIAN_POINT('Ctrl Pts',(38.15,-2.4502174002032,69.9));
#327=CARTESIAN_POINT('Ctrl Pts',(37.9101321264653,-4.96791385339766,69.768123366721));
#328=CARTESIAN_POINT('Ctrl Pts',(36.9185353870353,-9.9438438617069,69.2343207910923));
#329=CARTESIAN_POINT('Ctrl Pts',(36.167164130851,-12.4021829654796,68.8327145519954));
#330=CARTESIAN_POINT('Ctrl Pts',(34.2031019113366,-17.0887589854279,67.8213170125663));
#331=CARTESIAN_POINT('Ctrl Pts',(32.9888344409539,-19.321597270057,67.2112434809516));
#332=CARTESIAN_POINT('Ctrl Pts',(30.2061520013316,-23.4344980680274,65.890057457246));
#333=CARTESIAN_POINT('Ctrl Pts',(28.6375258735195,-25.3147215310141,65.1798909322563));
#334=CARTESIAN_POINT('Ctrl Pts',(25.3078944899784,-28.6443529145551,63.7869976079523));
#335=CARTESIAN_POINT('Ctrl Pts',(23.4242257905803,-30.2140168480354,63.0519769791489));
#336=CARTESIAN_POINT('Ctrl Pts',(19.3125263158301,-32.994052410527,61.6427702261957));
#337=CARTESIAN_POINT('Ctrl Pts',(17.0843798940205,-34.2048902575499,60.9698415890175));
#338=CARTESIAN_POINT('Ctrl Pts',(12.4078359126973,-36.1648419205345,59.8280921400082));
#339=CARTESIAN_POINT('Ctrl Pts',(9.9547493434934,-36.9155276941313,59.3599120501401));
#340=CARTESIAN_POINT('Ctrl Pts',(4.98109809632529,-37.9083352190761,58.7308561696727));
#341=CARTESIAN_POINT('Ctrl Pts',(2.46028584421212,-38.15,58.5712173341139));
#342=CARTESIAN_POINT('Ctrl Pts',(5.55111512312578E-16,-38.15,58.5712173341139));
#343=CARTESIAN_POINT('Origin',(0.,0.,145.));
#344=CARTESIAN_POINT('Origin',(-145.,0.,0.));
#345=CARTESIAN_POINT('',(-145.,-69.9,-8.56028112604E-15));
#346=CARTESIAN_POINT('Origin',(-145.,0.,0.));
#347=CARTESIAN_POINT('Origin',(0.,0.,0.));
#348=CARTESIAN_POINT('',(145.,-69.9,-8.56028112604E-15));
#349=CARTESIAN_POINT('Origin',(145.,0.,0.));
#350=CARTESIAN_POINT('',(0.,-69.9,-8.56028112604E-15));
#351=CARTESIAN_POINT('Origin',(145.,0.,0.));
#352=UNCERTAINTY_MEASURE_WITH_UNIT(LENGTH_MEASURE(0.01),#356,
'DISTANCE_ACCURACY_VALUE',
'Maximum model space distance between geometric entities at asserted c
onnectivities');
#353=UNCERTAINTY_MEASURE_WITH_UNIT(LENGTH_MEASURE(0.01),#356,
'DISTANCE_ACCURACY_VALUE',
'Maximum model space distance between geometric entities at asserted c
onnectivities');
#354=(
GEOMETRIC_REPRESENTATION_CONTEXT(3)
GLOBAL_UNCERTAINTY_ASSIGNED_CONTEXT((#352))
GLOBAL_UNIT_ASSIGNED_CONTEXT((#356,#358,#359))
REPRESENTATION_CONTEXT('','3D')
);
#355=(
GEOMETRIC_REPRESENTATION_CONTEXT(3)
GLOBAL_UNCERTAINTY_ASSIGNED_CONTEXT((#353))
GLOBAL_UNIT_ASSIGNED_CONTEXT((#356,#358,#359))
REPRESENTATION_CONTEXT('','3D')
);
#356=(
LENGTH_UNIT()
NAMED_UNIT(*)
SI_UNIT(.MILLI.,.METRE.)
);
#357=(
LENGTH_UNIT()
NAMED_UNIT(*)
SI_UNIT(.CENTI.,.METRE.)
);
#358=(
NAMED_UNIT(*)
PLANE_ANGLE_UNIT()
SI_UNIT($,.RADIAN.)
);
#359=(
NAMED_UNIT(*)
SI_UNIT($,.STERADIAN.)
SOLID_ANGLE_UNIT()
);
#360=SHAPE_DEFINITION_REPRESENTATION(#361,#362);
#361=PRODUCT_DEFINITION_SHAPE('',$,#364);
#362=SHAPE_REPRESENTATION('',(#142),#354);
#363=PRODUCT_DEFINITION_CONTEXT('part definition',#368,'design');
#364=PRODUCT_DEFINITION('D8(R) 50\X\D730','D8(R) 50\X\D730',#365,#363);
#365=PRODUCT_DEFINITION_FORMATION('',$,#370);
#366=PRODUCT_RELATED_PRODUCT_CATEGORY('D8(R) 50\X\D730','D8(R) 50\X\D7
30',(#370));
#367=APPLICATION_PROTOCOL_DEFINITION('international standard',
'automotive_design',2009,#368);
#368=APPLICATION_CONTEXT(
'Core Data for Automotive Mechanical Design Process');
#369=PRODUCT_CONTEXT('part definition',#368,'mechanical');
#370=PRODUCT('D8(R) 50\X\D730','D8(R) 50\X\D730',$,(#369));
#371=PRESENTATION_STYLE_ASSIGNMENT((#372));
#372=SURFACE_STYLE_USAGE(.BOTH.,#375);
#373=SURFACE_STYLE_RENDERING_WITH_PROPERTIES($,#379,(#374));
#374=SURFACE_STYLE_TRANSPARENT(0.);
#375=SURFACE_SIDE_STYLE('',(#376,#373));
#376=SURFACE_STYLE_FILL_AREA(#377);
#377=FILL_AREA_STYLE('',(#378));
#378=FILL_AREA_STYLE_COLOUR('',#379);
#379=COLOUR_RGB('',0.749019607843137,0.749019607843137,0.749019607843137);
ENDSEC;
END-ISO-10303-21;
