ISO-10303-21;
HEADER;
/* Generated by software containing ST-Developer
 * from STEP Tools, Inc. (www.steptools.com) 
 */

FILE_DESCRIPTION(
/* description */ (''),
/* implementation_level */ '2;1');

FILE_NAME(
/* name */ 
'\\\\Tske00\\w\\Work\\TOSTE\\\X2\7D99624B\X0\\\02_\X2\6EB663A5\X0\\\\X2\6EB663A5752830C130FC30BA\X0\\\
D8(R)\\D8(R) 50\X\D720.stp',
/* time_stamp */ '2022-04-12T17:50:42+09:00',
/* author */ ('3dcad-eng'),
/* organization */ (''),
/* preprocessor_version */ 'ST-DEVELOPER v18.1',
/* originating_system */ 'Autodesk Inventor 2022',
/* authorisation */ '');

FILE_SCHEMA (('AUTOMOTIVE_DESIGN { 1 0 10303 214 3 1 1 }'));
ENDSEC;

DATA;
#10=MECHANICAL_DESIGN_GEOMETRIC_PRESENTATION_REPRESENTATION('',(#13),#355);
#11=SHAPE_REPRESENTATION_RELATIONSHIP('SRR','None',#362,#12);
#12=ADVANCED_BREP_SHAPE_REPRESENTATION('',(#14),#354);
#13=STYLED_ITEM('',(#371),#14);
#14=MANIFOLD_SOLID_BREP('\X2\30BD30EA30C330C9\X0\1',#123);
#15=PLANE('',#150);
#16=PLANE('',#151);
#17=PLANE('',#155);
#18=FACE_BOUND('',#32,.T.);
#19=FACE_BOUND('',#35,.T.);
#20=FACE_BOUND('',#37,.T.);
#21=FACE_BOUND('',#39,.T.);
#22=FACE_BOUND('',#41,.T.);
#23=FACE_OUTER_BOUND('',#30,.T.);
#24=FACE_OUTER_BOUND('',#31,.T.);
#25=FACE_OUTER_BOUND('',#33,.T.);
#26=FACE_OUTER_BOUND('',#34,.T.);
#27=FACE_OUTER_BOUND('',#36,.T.);
#28=FACE_OUTER_BOUND('',#38,.T.);
#29=FACE_OUTER_BOUND('',#40,.T.);
#30=EDGE_LOOP('',(#84,#85,#86,#87,#88));
#31=EDGE_LOOP('',(#89,#90,#91,#92));
#32=EDGE_LOOP('',(#93,#94));
#33=EDGE_LOOP('',(#95,#96,#97,#98,#99));
#34=EDGE_LOOP('',(#100));
#35=EDGE_LOOP('',(#101));
#36=EDGE_LOOP('',(#102));
#37=EDGE_LOOP('',(#103));
#38=EDGE_LOOP('',(#104,#105,#106,#107));
#39=EDGE_LOOP('',(#108,#109));
#40=EDGE_LOOP('',(#110));
#41=EDGE_LOOP('',(#111));
#42=CIRCLE('',#144,23.9);
#43=CIRCLE('',#146,66.9);
#44=CIRCLE('',#147,66.9);
#45=CIRCLE('',#149,25.4);
#46=CIRCLE('',#152,69.9);
#47=CIRCLE('',#154,69.9);
#48=LINE('',#261,#52);
#49=LINE('',#267,#53);
#50=LINE('',#273,#54);
#51=LINE('',#350,#55);
#52=VECTOR('',#160,23.9);
#53=VECTOR('',#167,66.9);
#54=VECTOR('',#174,25.4);
#55=VECTOR('',#185,69.9);
#56=B_SPLINE_CURVE_WITH_KNOTS('',3,(#192,#193,#194,#195,#196,#197,#198,
#199,#200,#201,#202,#203,#204,#205,#206,#207,#208,#209,#210,#211,#212,#213,
#214,#215,#216,#217,#218,#219,#220,#221,#222,#223,#224,#225,#226,#227,#228,
#229,#230,#231,#232,#233,#234,#235,#236,#237,#238,#239,#240,#241),
 .UNSPECIFIED.,.F.,.F.,(4,2,2,2,2,2,2,2,2,2,2,2,2,2,2,2,2,2,2,2,2,2,2,2,
4),(0.,0.454662775586282,0.909325551172564,1.36398832675885,1.81865110234513,
2.27303092332288,2.72741074430064,3.18179056527839,3.63617038625614,4.0905502072339,
4.54493002821165,4.99930984918941,5.45368967016716,5.90835244575344,6.36301522133972,
6.81767799692601,7.27234077251229,7.72700354809857,8.18166632368485,8.63632909927113,
9.09099187485742,9.54537169583517,9.99975151681292,10.4541313377907,10.9085111587684),
 .UNSPECIFIED.);
#57=B_SPLINE_CURVE_WITH_KNOTS('',3,(#242,#243,#244,#245,#246,#247,#248,
#249,#250,#251,#252,#253,#254,#255,#256,#257,#258,#259),.UNSPECIFIED.,.F.,
 .F.,(4,2,2,2,2,2,2,2,4),(10.9085111587684,11.3628909797462,11.8172708007239,
12.2716506217017,12.7260304426794,13.1806932182657,13.635355993852,14.0900187694383,
14.5446815450246),.UNSPECIFIED.);
#58=B_SPLINE_CURVE_WITH_KNOTS('',3,(#275,#276,#277,#278,#279,#280,#281,
#282,#283,#284,#285,#286,#287,#288,#289,#290,#291,#292),.UNSPECIFIED.,.F.,
 .F.,(4,2,2,2,2,2,2,2,4),(0.,0.483382034729261,0.966764069458522,1.45014610418778,
1.93352813891704,2.41658670581884,2.89964527272063,3.38270383962242,3.86576240652421),
 .UNSPECIFIED.);
#59=B_SPLINE_CURVE_WITH_KNOTS('',3,(#293,#294,#295,#296,#297,#298,#299,
#300,#301,#302,#303,#304,#305,#306,#307,#308,#309,#310,#311,#312,#313,#314,
#315,#316,#317,#318,#319,#320,#321,#322,#323,#324,#325,#326,#327,#328,#329,
#330,#331,#332,#333,#334,#335,#336,#337,#338,#339,#340,#341,#342),
 .UNSPECIFIED.,.F.,.F.,(4,2,2,2,2,2,2,2,2,2,2,2,2,2,2,2,2,2,2,2,2,2,2,2,
4),(3.86576240652421,4.348820973426,4.83187954032779,5.31493810722958,5.79799667413137,
6.28137870886064,6.7647607435899,7.24814277831916,7.73152481304842,8.21490684777768,
8.69828888250694,9.1816709172362,9.66505295196546,10.1481115188673,10.631170085769,
11.1142286526708,11.5972872195726,12.0803457864744,12.5634043533762,13.046462920278,
13.5295214871798,14.0129035219091,14.4962855566383,14.9796675913676,15.4630496260968),
 .UNSPECIFIED.);
#60=VERTEX_POINT('',#190);
#61=VERTEX_POINT('',#191);
#62=VERTEX_POINT('',#260);
#63=VERTEX_POINT('',#264);
#64=VERTEX_POINT('',#266);
#65=VERTEX_POINT('',#270);
#66=VERTEX_POINT('',#272);
#67=VERTEX_POINT('',#274);
#68=VERTEX_POINT('',#345);
#69=VERTEX_POINT('',#348);
#70=EDGE_CURVE('',#60,#61,#56,.T.);
#71=EDGE_CURVE('',#61,#60,#57,.T.);
#72=EDGE_CURVE('',#61,#62,#48,.T.);
#73=EDGE_CURVE('',#62,#62,#42,.T.);
#74=EDGE_CURVE('',#63,#63,#43,.T.);
#75=EDGE_CURVE('',#63,#64,#49,.T.);
#76=EDGE_CURVE('',#64,#64,#44,.T.);
#77=EDGE_CURVE('',#65,#65,#45,.T.);
#78=EDGE_CURVE('',#65,#66,#50,.T.);
#79=EDGE_CURVE('',#67,#66,#58,.T.);
#80=EDGE_CURVE('',#66,#67,#59,.T.);
#81=EDGE_CURVE('',#68,#68,#46,.T.);
#82=EDGE_CURVE('',#69,#69,#47,.T.);
#83=EDGE_CURVE('',#69,#68,#51,.T.);
#84=ORIENTED_EDGE('',*,*,#70,.F.);
#85=ORIENTED_EDGE('',*,*,#71,.F.);
#86=ORIENTED_EDGE('',*,*,#72,.T.);
#87=ORIENTED_EDGE('',*,*,#73,.F.);
#88=ORIENTED_EDGE('',*,*,#72,.F.);
#89=ORIENTED_EDGE('',*,*,#74,.F.);
#90=ORIENTED_EDGE('',*,*,#75,.T.);
#91=ORIENTED_EDGE('',*,*,#76,.F.);
#92=ORIENTED_EDGE('',*,*,#75,.F.);
#93=ORIENTED_EDGE('',*,*,#70,.T.);
#94=ORIENTED_EDGE('',*,*,#71,.T.);
#95=ORIENTED_EDGE('',*,*,#77,.F.);
#96=ORIENTED_EDGE('',*,*,#78,.T.);
#97=ORIENTED_EDGE('',*,*,#79,.F.);
#98=ORIENTED_EDGE('',*,*,#80,.F.);
#99=ORIENTED_EDGE('',*,*,#78,.F.);
#100=ORIENTED_EDGE('',*,*,#77,.T.);
#101=ORIENTED_EDGE('',*,*,#73,.T.);
#102=ORIENTED_EDGE('',*,*,#81,.T.);
#103=ORIENTED_EDGE('',*,*,#74,.T.);
#104=ORIENTED_EDGE('',*,*,#82,.F.);
#105=ORIENTED_EDGE('',*,*,#83,.T.);
#106=ORIENTED_EDGE('',*,*,#81,.F.);
#107=ORIENTED_EDGE('',*,*,#83,.F.);
#108=ORIENTED_EDGE('',*,*,#79,.T.);
#109=ORIENTED_EDGE('',*,*,#80,.T.);
#110=ORIENTED_EDGE('',*,*,#82,.T.);
#111=ORIENTED_EDGE('',*,*,#76,.T.);
#112=CYLINDRICAL_SURFACE('',#143,23.9);
#113=CYLINDRICAL_SURFACE('',#145,66.9);
#114=CYLINDRICAL_SURFACE('',#148,25.4);
#115=CYLINDRICAL_SURFACE('',#153,69.9);
#116=ADVANCED_FACE('',(#23),#112,.F.);
#117=ADVANCED_FACE('',(#24,#18),#113,.F.);
#118=ADVANCED_FACE('',(#25),#114,.T.);
#119=ADVANCED_FACE('',(#26,#19),#15,.T.);
#120=ADVANCED_FACE('',(#27,#20),#16,.F.);
#121=ADVANCED_FACE('',(#28,#21),#115,.T.);
#122=ADVANCED_FACE('',(#29,#22),#17,.T.);
#123=CLOSED_SHELL('',(#116,#117,#118,#119,#120,#121,#122));
#124=DERIVED_UNIT_ELEMENT(#126,1.);
#125=DERIVED_UNIT_ELEMENT(#357,-3.);
#126=(
MASS_UNIT()
NAMED_UNIT(*)
SI_UNIT($,.GRAM.)
);
#127=DERIVED_UNIT((#124,#125));
#128=MEASURE_REPRESENTATION_ITEM('density measure',
POSITIVE_RATIO_MEASURE(1.),#127);
#129=PROPERTY_DEFINITION_REPRESENTATION(#134,#131);
#130=PROPERTY_DEFINITION_REPRESENTATION(#135,#132);
#131=REPRESENTATION('material name',(#133),#354);
#132=REPRESENTATION('density',(#128),#354);
#133=DESCRIPTIVE_REPRESENTATION_ITEM('\X2\4E00822C\X0\','\X2\4E00822C\X0\');
#134=PROPERTY_DEFINITION('material property','material name',#364);
#135=PROPERTY_DEFINITION('material property','density of part',#364);
#136=DATE_TIME_ROLE('creation_date');
#137=APPLIED_DATE_AND_TIME_ASSIGNMENT(#138,#136,(#364));
#138=DATE_AND_TIME(#139,#140);
#139=CALENDAR_DATE(2022,31,3);
#140=LOCAL_TIME(0,0,0.,#141);
#141=COORDINATED_UNIVERSAL_TIME_OFFSET(0,0,.BEHIND.);
#142=AXIS2_PLACEMENT_3D('placement',#188,#156,#157);
#143=AXIS2_PLACEMENT_3D('',#189,#158,#159);
#144=AXIS2_PLACEMENT_3D('',#262,#161,#162);
#145=AXIS2_PLACEMENT_3D('',#263,#163,#164);
#146=AXIS2_PLACEMENT_3D('',#265,#165,#166);
#147=AXIS2_PLACEMENT_3D('',#268,#168,#169);
#148=AXIS2_PLACEMENT_3D('',#269,#170,#171);
#149=AXIS2_PLACEMENT_3D('',#271,#172,#173);
#150=AXIS2_PLACEMENT_3D('',#343,#175,#176);
#151=AXIS2_PLACEMENT_3D('',#344,#177,#178);
#152=AXIS2_PLACEMENT_3D('',#346,#179,#180);
#153=AXIS2_PLACEMENT_3D('',#347,#181,#182);
#154=AXIS2_PLACEMENT_3D('',#349,#183,#184);
#155=AXIS2_PLACEMENT_3D('',#351,#186,#187);
#156=DIRECTION('axis',(0.,0.,1.));
#157=DIRECTION('refdir',(1.,0.,0.));
#158=DIRECTION('center_axis',(0.,0.,1.));
#159=DIRECTION('ref_axis',(1.,0.,0.));
#160=DIRECTION('',(0.,0.,1.));
#161=DIRECTION('center_axis',(0.,0.,-1.));
#162=DIRECTION('ref_axis',(1.,0.,0.));
#163=DIRECTION('center_axis',(1.,0.,0.));
#164=DIRECTION('ref_axis',(0.,1.,0.));
#165=DIRECTION('center_axis',(1.,0.,0.));
#166=DIRECTION('ref_axis',(0.,1.,0.));
#167=DIRECTION('',(1.,0.,0.));
#168=DIRECTION('center_axis',(-1.,0.,0.));
#169=DIRECTION('ref_axis',(0.,1.,0.));
#170=DIRECTION('center_axis',(0.,0.,1.));
#171=DIRECTION('ref_axis',(1.,0.,0.));
#172=DIRECTION('center_axis',(0.,0.,1.));
#173=DIRECTION('ref_axis',(1.,0.,0.));
#174=DIRECTION('',(0.,0.,-1.));
#175=DIRECTION('center_axis',(0.,0.,1.));
#176=DIRECTION('ref_axis',(1.,0.,0.));
#177=DIRECTION('center_axis',(1.,0.,0.));
#178=DIRECTION('ref_axis',(0.,0.,-1.));
#179=DIRECTION('center_axis',(-1.,0.,0.));
#180=DIRECTION('ref_axis',(0.,1.,0.));
#181=DIRECTION('center_axis',(1.,0.,0.));
#182=DIRECTION('ref_axis',(0.,1.,0.));
#183=DIRECTION('center_axis',(1.,0.,0.));
#184=DIRECTION('ref_axis',(0.,1.,0.));
#185=DIRECTION('',(-1.,0.,0.));
#186=DIRECTION('center_axis',(1.,0.,0.));
#187=DIRECTION('ref_axis',(0.,0.,-1.));
#188=CARTESIAN_POINT('',(0.,0.,0.));
#189=CARTESIAN_POINT('Origin',(0.,0.,0.));
#190=CARTESIAN_POINT('',(2.77555756156289E-16,-23.9,62.4851982472649));
#191=CARTESIAN_POINT('',(-23.9,-7.56741441996415E-17,66.9));
#192=CARTESIAN_POINT('Ctrl Pts',(2.77555756156289E-16,-23.9,62.4851982472649));
#193=CARTESIAN_POINT('Ctrl Pts',(1.51554258528761,-23.9,62.4851982472649));
#194=CARTESIAN_POINT('Ctrl Pts',(3.07802330122247,-23.7535286017795,62.5418778362793));
#195=CARTESIAN_POINT('Ctrl Pts',(6.17695208814595,-23.1419448529387,62.770749498151));
#196=CARTESIAN_POINT('Ctrl Pts',(7.71345477341243,-22.6770168248592,62.9426945260747));
#197=CARTESIAN_POINT('Ctrl Pts',(10.6530580871879,-21.4535984591103,63.3701266547524));
#198=CARTESIAN_POINT('Ctrl Pts',(12.0587554062103,-20.6941380077161,63.625480852222));
#199=CARTESIAN_POINT('Ctrl Pts',(14.6552278078678,-18.9442663602445,64.1682470813587));
#200=CARTESIAN_POINT('Ctrl Pts',(15.8460095446008,-17.9536945961162,64.4551094608342));
#201=CARTESIAN_POINT('Ctrl Pts',(17.9530387482761,-15.8466653924409,65.0052152147336));
#202=CARTESIAN_POINT('Ctrl Pts',(18.9435299772896,-14.6561956742251,65.2882957404551));
#203=CARTESIAN_POINT('Ctrl Pts',(20.6936849310922,-12.0595523839287,65.8174204037819));
#204=CARTESIAN_POINT('Ctrl Pts',(21.4534806391766,-10.653371528632,66.0629921323109));
#205=CARTESIAN_POINT('Ctrl Pts',(22.6772768917141,-7.71279954074821,66.4704895251566));
#206=CARTESIAN_POINT('Ctrl Pts',(23.1422495023823,-6.17582600010957,66.6324379108262));
#207=CARTESIAN_POINT('Ctrl Pts',(23.7536978651082,-3.07674772321553,66.8472604687193));
#208=CARTESIAN_POINT('Ctrl Pts',(23.9,-1.51459940325918,66.9));
#209=CARTESIAN_POINT('Ctrl Pts',(23.9,1.51459940325918,66.9));
#210=CARTESIAN_POINT('Ctrl Pts',(23.7536978651082,3.07674772321553,66.8472604687193));
#211=CARTESIAN_POINT('Ctrl Pts',(23.1422495023823,6.17582600010957,66.6324379108262));
#212=CARTESIAN_POINT('Ctrl Pts',(22.6772768917141,7.71279954074821,66.4704895251566));
#213=CARTESIAN_POINT('Ctrl Pts',(21.4534806391766,10.653371528632,66.0629921323109));
#214=CARTESIAN_POINT('Ctrl Pts',(20.6936849310922,12.0595523839287,65.8174204037819));
#215=CARTESIAN_POINT('Ctrl Pts',(18.9435299772897,14.6561956742251,65.2882957404552));
#216=CARTESIAN_POINT('Ctrl Pts',(17.9530387482761,15.8466653924409,65.0052152147336));
#217=CARTESIAN_POINT('Ctrl Pts',(15.8460095446008,17.9536945961162,64.4551094608342));
#218=CARTESIAN_POINT('Ctrl Pts',(14.6552278078678,18.9442663602445,64.1682470813587));
#219=CARTESIAN_POINT('Ctrl Pts',(12.0587554062103,20.6941380077161,63.625480852222));
#220=CARTESIAN_POINT('Ctrl Pts',(10.6530580871879,21.4535984591103,63.3701266547524));
#221=CARTESIAN_POINT('Ctrl Pts',(7.71345477341242,22.6770168248592,62.9426945260747));
#222=CARTESIAN_POINT('Ctrl Pts',(6.17695208814594,23.1419448529387,62.770749498151));
#223=CARTESIAN_POINT('Ctrl Pts',(3.07802330122246,23.7535286017795,62.5418778362793));
#224=CARTESIAN_POINT('Ctrl Pts',(1.5155425852876,23.9,62.4851982472649));
#225=CARTESIAN_POINT('Ctrl Pts',(-1.5155425852876,23.9,62.4851982472649));
#226=CARTESIAN_POINT('Ctrl Pts',(-3.07802330122246,23.7535286017795,62.5418778362793));
#227=CARTESIAN_POINT('Ctrl Pts',(-6.17695208814594,23.1419448529387,62.770749498151));
#228=CARTESIAN_POINT('Ctrl Pts',(-7.71345477341242,22.6770168248592,62.9426945260747));
#229=CARTESIAN_POINT('Ctrl Pts',(-10.6530580871879,21.4535984591103,63.3701266547524));
#230=CARTESIAN_POINT('Ctrl Pts',(-12.0587554062103,20.6941380077161,63.625480852222));
#231=CARTESIAN_POINT('Ctrl Pts',(-14.6552278078678,18.9442663602445,64.1682470813587));
#232=CARTESIAN_POINT('Ctrl Pts',(-15.8460095446008,17.9536945961162,64.4551094608342));
#233=CARTESIAN_POINT('Ctrl Pts',(-17.9530387482761,15.8466653924409,65.0052152147336));
#234=CARTESIAN_POINT('Ctrl Pts',(-18.9435299772897,14.6561956742251,65.2882957404551));
#235=CARTESIAN_POINT('Ctrl Pts',(-20.6936849310922,12.0595523839287,65.8174204037819));
#236=CARTESIAN_POINT('Ctrl Pts',(-21.4534806391766,10.653371528632,66.0629921323109));
#237=CARTESIAN_POINT('Ctrl Pts',(-22.6772768917141,7.71279954074821,66.4704895251566));
#238=CARTESIAN_POINT('Ctrl Pts',(-23.1422495023823,6.17582600010958,66.6324379108262));
#239=CARTESIAN_POINT('Ctrl Pts',(-23.7536978651082,3.07674772321554,66.8472604687193));
#240=CARTESIAN_POINT('Ctrl Pts',(-23.9,1.51459940325918,66.9));
#241=CARTESIAN_POINT('Ctrl Pts',(-23.9,3.05311331771918E-15,66.9));
#242=CARTESIAN_POINT('Ctrl Pts',(-23.9,2.77555756156289E-15,66.9));
#243=CARTESIAN_POINT('Ctrl Pts',(-23.9,-1.51459940325918,66.9));
#244=CARTESIAN_POINT('Ctrl Pts',(-23.7536978651082,-3.07674772321553,66.8472604687193));
#245=CARTESIAN_POINT('Ctrl Pts',(-23.1422495023823,-6.17582600010957,66.6324379108262));
#246=CARTESIAN_POINT('Ctrl Pts',(-22.6772768917141,-7.71279954074821,66.4704895251566));
#247=CARTESIAN_POINT('Ctrl Pts',(-21.4534806391766,-10.653371528632,66.0629921323109));
#248=CARTESIAN_POINT('Ctrl Pts',(-20.6936849310922,-12.0595523839287,65.8174204037819));
#249=CARTESIAN_POINT('Ctrl Pts',(-18.9435299772897,-14.6561956742251,65.2882957404552));
#250=CARTESIAN_POINT('Ctrl Pts',(-17.9530387482761,-15.8466653924409,65.0052152147336));
#251=CARTESIAN_POINT('Ctrl Pts',(-15.8460095446008,-17.9536945961162,64.4551094608342));
#252=CARTESIAN_POINT('Ctrl Pts',(-14.6552278078678,-18.9442663602445,64.1682470813587));
#253=CARTESIAN_POINT('Ctrl Pts',(-12.0587554062103,-20.6941380077161,63.625480852222));
#254=CARTESIAN_POINT('Ctrl Pts',(-10.6530580871879,-21.4535984591103,63.3701266547524));
#255=CARTESIAN_POINT('Ctrl Pts',(-7.71345477341243,-22.6770168248592,62.9426945260747));
#256=CARTESIAN_POINT('Ctrl Pts',(-6.17695208814595,-23.1419448529387,62.770749498151));
#257=CARTESIAN_POINT('Ctrl Pts',(-3.07802330122247,-23.7535286017795,62.5418778362793));
#258=CARTESIAN_POINT('Ctrl Pts',(-1.51554258528761,-23.9,62.4851982472649));
#259=CARTESIAN_POINT('Ctrl Pts',(-5.55111512312578E-16,-23.9,62.4851982472649));
#260=CARTESIAN_POINT('',(-23.9,2.92690584996217E-15,145.));
#261=CARTESIAN_POINT('',(-23.9,-2.92690584996217E-15,0.));
#262=CARTESIAN_POINT('Origin',(0.,0.,145.));
#263=CARTESIAN_POINT('Origin',(0.,0.,0.));
#264=CARTESIAN_POINT('',(-145.,-66.9,-8.19288708629579E-15));
#265=CARTESIAN_POINT('Origin',(-145.,0.,0.));
#266=CARTESIAN_POINT('',(145.,-66.9,8.19288708629579E-15));
#267=CARTESIAN_POINT('',(0.,-66.9,-8.19288708629579E-15));
#268=CARTESIAN_POINT('Origin',(145.,0.,0.));
#269=CARTESIAN_POINT('Origin',(0.,0.,0.));
#270=CARTESIAN_POINT('',(-25.4,-3.11060286983428E-15,145.));
#271=CARTESIAN_POINT('Origin',(0.,0.,145.));
#272=CARTESIAN_POINT('',(-25.4,-3.22063597185487E-15,69.9));
#273=CARTESIAN_POINT('',(-25.4,-3.11060286983428E-15,0.));
#274=CARTESIAN_POINT('',(8.32667268468867E-16,-25.4,65.121808942934));
#275=CARTESIAN_POINT('Ctrl Pts',(8.32667268468867E-16,-25.4,65.121808942934));
#276=CARTESIAN_POINT('Ctrl Pts',(-1.61127344909754,-25.4,65.121808942934));
#277=CARTESIAN_POINT('Ctrl Pts',(-3.2722408287428,-25.2442182460112,65.1832841686931));
#278=CARTESIAN_POINT('Ctrl Pts',(-6.56612274306076,-24.5939859976111,65.4313911085168));
#279=CARTESIAN_POINT('Ctrl Pts',(-8.19909691648004,-24.0997337693838,65.6177505481657));
#280=CARTESIAN_POINT('Ctrl Pts',(-11.3229862072194,-22.7993949060165,66.0808133372839));
#281=CARTESIAN_POINT('Ctrl Pts',(-12.8166705617415,-21.9922772376965,66.3573695500223));
#282=CARTESIAN_POINT('Ctrl Pts',(-15.575565515939,-20.1327857356601,66.9449900295843));
#283=CARTESIAN_POINT('Ctrl Pts',(-16.8407858584814,-19.0802386257952,67.2554600678355));
#284=CARTESIAN_POINT('Ctrl Pts',(-19.0794893313766,-16.8415351529,67.850669212791));
#285=CARTESIAN_POINT('Ctrl Pts',(-20.1319439394663,-15.5766717685403,68.1568949273048));
#286=CARTESIAN_POINT('Ctrl Pts',(-21.9917583958099,-12.8175829596447,68.7292121048953));
#287=CARTESIAN_POINT('Ctrl Pts',(-22.7992589808868,-11.3233469773006,68.9947952066868));
#288=CARTESIAN_POINT('Ctrl Pts',(-24.1000299988593,-8.19835103271566,69.4354879932176));
#289=CARTESIAN_POINT('Ctrl Pts',(-24.5943337060928,-6.56483804364937,69.6106248661087));
#290=CARTESIAN_POINT('Ctrl Pts',(-25.2444117277215,-3.2707836237116,69.8429535978969));
#291=CARTESIAN_POINT('Ctrl Pts',(-25.4,-1.61019522300597,69.9));
#292=CARTESIAN_POINT('Ctrl Pts',(-25.4,-3.05311331771918E-15,69.9));
#293=CARTESIAN_POINT('Ctrl Pts',(-25.4,-3.33066907387547E-15,69.9));
#294=CARTESIAN_POINT('Ctrl Pts',(-25.4,1.61019522300597,69.9));
#295=CARTESIAN_POINT('Ctrl Pts',(-25.2444117277215,3.27078362371159,69.8429535978969));
#296=CARTESIAN_POINT('Ctrl Pts',(-24.5943337060928,6.56483804364936,69.6106248661087));
#297=CARTESIAN_POINT('Ctrl Pts',(-24.1000299988593,8.19835103271566,69.4354879932176));
#298=CARTESIAN_POINT('Ctrl Pts',(-22.7992589808868,11.3233469773006,68.9947952066868));
#299=CARTESIAN_POINT('Ctrl Pts',(-21.9917583958099,12.8175829596447,68.7292121048953));
#300=CARTESIAN_POINT('Ctrl Pts',(-20.1319439394663,15.5766717685403,68.1568949273048));
#301=CARTESIAN_POINT('Ctrl Pts',(-19.0794893313766,16.8415351529,67.850669212791));
#302=CARTESIAN_POINT('Ctrl Pts',(-16.8407858584814,19.0802386257952,67.2554600678355));
#303=CARTESIAN_POINT('Ctrl Pts',(-15.575565515939,20.1327857356601,66.9449900295843));
#304=CARTESIAN_POINT('Ctrl Pts',(-12.8166705617415,21.9922772376965,66.3573695500223));
#305=CARTESIAN_POINT('Ctrl Pts',(-11.3229862072194,22.7993949060165,66.0808133372839));
#306=CARTESIAN_POINT('Ctrl Pts',(-8.19909691648004,24.0997337693838,65.6177505481657));
#307=CARTESIAN_POINT('Ctrl Pts',(-6.56612274306077,24.5939859976111,65.4313911085168));
#308=CARTESIAN_POINT('Ctrl Pts',(-3.27224082874281,25.2442182460112,65.1832841686931));
#309=CARTESIAN_POINT('Ctrl Pts',(-1.61127344909754,25.4,65.121808942934));
#310=CARTESIAN_POINT('Ctrl Pts',(1.61127344909753,25.4,65.121808942934));
#311=CARTESIAN_POINT('Ctrl Pts',(3.2722408287428,25.2442182460112,65.1832841686931));
#312=CARTESIAN_POINT('Ctrl Pts',(6.56612274306076,24.5939859976111,65.4313911085168));
#313=CARTESIAN_POINT('Ctrl Pts',(8.19909691648004,24.0997337693838,65.6177505481657));
#314=CARTESIAN_POINT('Ctrl Pts',(11.3229862072194,22.7993949060165,66.0808133372839));
#315=CARTESIAN_POINT('Ctrl Pts',(12.8166705617415,21.9922772376965,66.3573695500223));
#316=CARTESIAN_POINT('Ctrl Pts',(15.575565515939,20.1327857356601,66.9449900295843));
#317=CARTESIAN_POINT('Ctrl Pts',(16.8407858584814,19.0802386257952,67.2554600678355));
#318=CARTESIAN_POINT('Ctrl Pts',(19.0794893313766,16.8415351529,67.850669212791));
#319=CARTESIAN_POINT('Ctrl Pts',(20.1319439394662,15.5766717685403,68.1568949273048));
#320=CARTESIAN_POINT('Ctrl Pts',(21.9917583958099,12.8175829596447,68.7292121048953));
#321=CARTESIAN_POINT('Ctrl Pts',(22.7992589808868,11.3233469773006,68.9947952066868));
#322=CARTESIAN_POINT('Ctrl Pts',(24.1000299988593,8.19835103271567,69.4354879932176));
#323=CARTESIAN_POINT('Ctrl Pts',(24.5943337060928,6.56483804364937,69.6106248661087));
#324=CARTESIAN_POINT('Ctrl Pts',(25.2444117277215,3.2707836237116,69.8429535978969));
#325=CARTESIAN_POINT('Ctrl Pts',(25.4,1.61019522300598,69.9));
#326=CARTESIAN_POINT('Ctrl Pts',(25.4,-1.61019522300596,69.9));
#327=CARTESIAN_POINT('Ctrl Pts',(25.2444117277215,-3.27078362371159,69.8429535978969));
#328=CARTESIAN_POINT('Ctrl Pts',(24.5943337060928,-6.56483804364936,69.6106248661087));
#329=CARTESIAN_POINT('Ctrl Pts',(24.1000299988593,-8.19835103271565,69.4354879932176));
#330=CARTESIAN_POINT('Ctrl Pts',(22.7992589808868,-11.3233469773006,68.9947952066868));
#331=CARTESIAN_POINT('Ctrl Pts',(21.9917583958099,-12.8175829596447,68.7292121048953));
#332=CARTESIAN_POINT('Ctrl Pts',(20.1319439394663,-15.5766717685403,68.1568949273048));
#333=CARTESIAN_POINT('Ctrl Pts',(19.0794893313766,-16.8415351529,67.850669212791));
#334=CARTESIAN_POINT('Ctrl Pts',(16.8407858584814,-19.0802386257952,67.2554600678355));
#335=CARTESIAN_POINT('Ctrl Pts',(15.575565515939,-20.1327857356601,66.9449900295843));
#336=CARTESIAN_POINT('Ctrl Pts',(12.8166705617415,-21.9922772376965,66.3573695500223));
#337=CARTESIAN_POINT('Ctrl Pts',(11.3229862072194,-22.7993949060165,66.0808133372839));
#338=CARTESIAN_POINT('Ctrl Pts',(8.19909691648004,-24.0997337693838,65.6177505481657));
#339=CARTESIAN_POINT('Ctrl Pts',(6.56612274306077,-24.5939859976111,65.4313911085168));
#340=CARTESIAN_POINT('Ctrl Pts',(3.27224082874281,-25.2442182460112,65.1832841686931));
#341=CARTESIAN_POINT('Ctrl Pts',(1.61127344909754,-25.4,65.121808942934));
#342=CARTESIAN_POINT('Ctrl Pts',(-8.32667268468867E-16,-25.4,65.121808942934));
#343=CARTESIAN_POINT('Origin',(0.,0.,145.));
#344=CARTESIAN_POINT('Origin',(-145.,0.,0.));
#345=CARTESIAN_POINT('',(-145.,-69.9,-8.56028112604E-15));
#346=CARTESIAN_POINT('Origin',(-145.,0.,0.));
#347=CARTESIAN_POINT('Origin',(0.,0.,0.));
#348=CARTESIAN_POINT('',(145.,-69.9,-8.56028112604E-15));
#349=CARTESIAN_POINT('Origin',(145.,0.,0.));
#350=CARTESIAN_POINT('',(0.,-69.9,-8.56028112604E-15));
#351=CARTESIAN_POINT('Origin',(145.,0.,0.));
#352=UNCERTAINTY_MEASURE_WITH_UNIT(LENGTH_MEASURE(0.01),#356,
'DISTANCE_ACCURACY_VALUE',
'Maximum model space distance between geometric entities at asserted c
onnectivities');
#353=UNCERTAINTY_MEASURE_WITH_UNIT(LENGTH_MEASURE(0.01),#356,
'DISTANCE_ACCURACY_VALUE',
'Maximum model space distance between geometric entities at asserted c
onnectivities');
#354=(
GEOMETRIC_REPRESENTATION_CONTEXT(3)
GLOBAL_UNCERTAINTY_ASSIGNED_CONTEXT((#352))
GLOBAL_UNIT_ASSIGNED_CONTEXT((#356,#358,#359))
REPRESENTATION_CONTEXT('','3D')
);
#355=(
GEOMETRIC_REPRESENTATION_CONTEXT(3)
GLOBAL_UNCERTAINTY_ASSIGNED_CONTEXT((#353))
GLOBAL_UNIT_ASSIGNED_CONTEXT((#356,#358,#359))
REPRESENTATION_CONTEXT('','3D')
);
#356=(
LENGTH_UNIT()
NAMED_UNIT(*)
SI_UNIT(.MILLI.,.METRE.)
);
#357=(
LENGTH_UNIT()
NAMED_UNIT(*)
SI_UNIT(.CENTI.,.METRE.)
);
#358=(
NAMED_UNIT(*)
PLANE_ANGLE_UNIT()
SI_UNIT($,.RADIAN.)
);
#359=(
NAMED_UNIT(*)
SI_UNIT($,.STERADIAN.)
SOLID_ANGLE_UNIT()
);
#360=SHAPE_DEFINITION_REPRESENTATION(#361,#362);
#361=PRODUCT_DEFINITION_SHAPE('',$,#364);
#362=SHAPE_REPRESENTATION('',(#142),#354);
#363=PRODUCT_DEFINITION_CONTEXT('part definition',#368,'design');
#364=PRODUCT_DEFINITION('D8(R) 50\X\D720','D8(R) 50\X\D720',#365,#363);
#365=PRODUCT_DEFINITION_FORMATION('',$,#370);
#366=PRODUCT_RELATED_PRODUCT_CATEGORY('D8(R) 50\X\D720','D8(R) 50\X\D7
20',(#370));
#367=APPLICATION_PROTOCOL_DEFINITION('international standard',
'automotive_design',2009,#368);
#368=APPLICATION_CONTEXT(
'Core Data for Automotive Mechanical Design Process');
#369=PRODUCT_CONTEXT('part definition',#368,'mechanical');
#370=PRODUCT('D8(R) 50\X\D720','D8(R) 50\X\D720',$,(#369));
#371=PRESENTATION_STYLE_ASSIGNMENT((#372));
#372=SURFACE_STYLE_USAGE(.BOTH.,#375);
#373=SURFACE_STYLE_RENDERING_WITH_PROPERTIES($,#379,(#374));
#374=SURFACE_STYLE_TRANSPARENT(0.);
#375=SURFACE_SIDE_STYLE('',(#376,#373));
#376=SURFACE_STYLE_FILL_AREA(#377);
#377=FILL_AREA_STYLE('',(#378));
#378=FILL_AREA_STYLE_COLOUR('',#379);
#379=COLOUR_RGB('',0.749019607843137,0.749019607843137,0.749019607843137);
ENDSEC;
END-ISO-10303-21;
