ISO-10303-21;
HEADER;
/* Generated by software containing ST-Developer
 * from STEP Tools, Inc. (www.steptools.com) 
 */

FILE_DESCRIPTION(
/* description */ (''),
/* implementation_level */ '2;1');

FILE_NAME(
/* name */ 
'\\\\Tske00\\w\\Work\\TOSTE\\\X2\7D99624B\X0\\\02_\X2\6EB663A5\X0\\\\X2\6EB663A5752830C130FC30BA\X0\\\
D8(R)\\D8(R) 50\X\D715.stp',
/* time_stamp */ '2022-04-12T17:50:42+09:00',
/* author */ ('3dcad-eng'),
/* organization */ (''),
/* preprocessor_version */ 'ST-DEVELOPER v18.1',
/* originating_system */ 'Autodesk Inventor 2022',
/* authorisation */ '');

FILE_SCHEMA (('AUTOMOTIVE_DESIGN { 1 0 10303 214 3 1 1 }'));
ENDSEC;

DATA;
#10=MECHANICAL_DESIGN_GEOMETRIC_PRESENTATION_REPRESENTATION('',(#13),#355);
#11=SHAPE_REPRESENTATION_RELATIONSHIP('SRR','None',#362,#12);
#12=ADVANCED_BREP_SHAPE_REPRESENTATION('',(#14),#354);
#13=STYLED_ITEM('',(#371),#14);
#14=MANIFOLD_SOLID_BREP('\X2\30BD30EA30C330C9\X0\1',#123);
#15=PLANE('',#150);
#16=PLANE('',#151);
#17=PLANE('',#155);
#18=FACE_BOUND('',#32,.T.);
#19=FACE_BOUND('',#35,.T.);
#20=FACE_BOUND('',#37,.T.);
#21=FACE_BOUND('',#39,.T.);
#22=FACE_BOUND('',#41,.T.);
#23=FACE_OUTER_BOUND('',#30,.T.);
#24=FACE_OUTER_BOUND('',#31,.T.);
#25=FACE_OUTER_BOUND('',#33,.T.);
#26=FACE_OUTER_BOUND('',#34,.T.);
#27=FACE_OUTER_BOUND('',#36,.T.);
#28=FACE_OUTER_BOUND('',#38,.T.);
#29=FACE_OUTER_BOUND('',#40,.T.);
#30=EDGE_LOOP('',(#84,#85,#86,#87,#88));
#31=EDGE_LOOP('',(#89,#90,#91,#92));
#32=EDGE_LOOP('',(#93,#94));
#33=EDGE_LOOP('',(#95,#96,#97,#98,#99));
#34=EDGE_LOOP('',(#100));
#35=EDGE_LOOP('',(#101));
#36=EDGE_LOOP('',(#102));
#37=EDGE_LOOP('',(#103));
#38=EDGE_LOOP('',(#104,#105,#106,#107));
#39=EDGE_LOOP('',(#108,#109));
#40=EDGE_LOOP('',(#110));
#41=EDGE_LOOP('',(#111));
#42=CIRCLE('',#144,17.85);
#43=CIRCLE('',#146,66.9);
#44=CIRCLE('',#147,66.9);
#45=CIRCLE('',#149,19.05);
#46=CIRCLE('',#152,69.9);
#47=CIRCLE('',#154,69.9);
#48=LINE('',#261,#52);
#49=LINE('',#267,#53);
#50=LINE('',#273,#54);
#51=LINE('',#350,#55);
#52=VECTOR('',#160,17.85);
#53=VECTOR('',#167,66.9);
#54=VECTOR('',#174,19.05);
#55=VECTOR('',#185,69.9);
#56=B_SPLINE_CURVE_WITH_KNOTS('',3,(#192,#193,#194,#195,#196,#197,#198,
#199,#200,#201,#202,#203,#204,#205,#206,#207,#208,#209,#210,#211,#212,#213,
#214,#215,#216,#217,#218,#219,#220,#221,#222,#223,#224,#225,#226,#227,#228,
#229,#230,#231,#232,#233,#234,#235,#236,#237,#238,#239,#240,#241),
 .UNSPECIFIED.,.F.,.F.,(4,2,2,2,2,2,2,2,2,2,2,2,2,2,2,2,2,2,2,2,2,2,2,2,
4),(0.,0.337995511100792,0.675991022201585,1.01398653330238,1.35198204440317,
1.68991571667163,2.02784938894009,2.36578306120855,2.70371673347701,3.04165040574547,
3.37958407801393,3.71751775028239,4.05545142255085,4.39344693365164,4.73144244475244,
5.06943795585323,5.40743346695402,5.74542897805481,6.08342448915561,6.4214200002564,
6.75941551135719,7.09734918362565,7.43528285589411,7.77321652816257,8.11115020043103),
 .UNSPECIFIED.);
#57=B_SPLINE_CURVE_WITH_KNOTS('',3,(#242,#243,#244,#245,#246,#247,#248,
#249,#250,#251,#252,#253,#254,#255,#256,#257,#258,#259),.UNSPECIFIED.,.F.,
 .F.,(4,2,2,2,2,2,2,2,4),(8.11115020043103,8.44908387269949,8.78701754496795,
9.12495121723641,9.46288488950487,9.80088040060567,10.1388759117065,10.4768714228072,
10.814866933908),.UNSPECIFIED.);
#58=B_SPLINE_CURVE_WITH_KNOTS('',3,(#275,#276,#277,#278,#279,#280,#281,
#282,#283,#284,#285,#286,#287,#288,#289,#290,#291,#292),.UNSPECIFIED.,.F.,
 .F.,(4,2,2,2,2,2,2,2,4),(0.,0.360805935466532,0.721611870933064,1.0824178063996,
1.44322374186613,1.8039576055867,2.16469146930726,2.52542533302783,2.8861591967484),
 .UNSPECIFIED.);
#59=B_SPLINE_CURVE_WITH_KNOTS('',3,(#293,#294,#295,#296,#297,#298,#299,
#300,#301,#302,#303,#304,#305,#306,#307,#308,#309,#310,#311,#312,#313,#314,
#315,#316,#317,#318,#319,#320,#321,#322,#323,#324,#325,#326,#327,#328,#329,
#330,#331,#332,#333,#334,#335,#336,#337,#338,#339,#340,#341,#342),
 .UNSPECIFIED.,.F.,.F.,(4,2,2,2,2,2,2,2,2,2,2,2,2,2,2,2,2,2,2,2,2,2,2,2,
4),(2.8861591967484,3.24689306046896,3.60762692418953,3.9683607879101,4.32909465163066,
4.6899005870972,5.05070652256373,5.41151245803026,5.77231839349679,6.13312432896332,
6.49393026442986,6.85473619989639,7.21554213536292,7.57627599908349,7.93700986280406,
8.29774372652462,8.65847759024519,9.01921145396576,9.37994531768632,9.74067918140689,
10.1014130451275,10.462218980594,10.8230249160605,11.1838308515271,11.5446367869936),
 .UNSPECIFIED.);
#60=VERTEX_POINT('',#190);
#61=VERTEX_POINT('',#191);
#62=VERTEX_POINT('',#260);
#63=VERTEX_POINT('',#264);
#64=VERTEX_POINT('',#266);
#65=VERTEX_POINT('',#270);
#66=VERTEX_POINT('',#272);
#67=VERTEX_POINT('',#274);
#68=VERTEX_POINT('',#345);
#69=VERTEX_POINT('',#348);
#70=EDGE_CURVE('',#60,#61,#56,.T.);
#71=EDGE_CURVE('',#61,#60,#57,.T.);
#72=EDGE_CURVE('',#61,#62,#48,.T.);
#73=EDGE_CURVE('',#62,#62,#42,.T.);
#74=EDGE_CURVE('',#63,#63,#43,.T.);
#75=EDGE_CURVE('',#63,#64,#49,.T.);
#76=EDGE_CURVE('',#64,#64,#44,.T.);
#77=EDGE_CURVE('',#65,#65,#45,.T.);
#78=EDGE_CURVE('',#65,#66,#50,.T.);
#79=EDGE_CURVE('',#67,#66,#58,.T.);
#80=EDGE_CURVE('',#66,#67,#59,.T.);
#81=EDGE_CURVE('',#68,#68,#46,.T.);
#82=EDGE_CURVE('',#69,#69,#47,.T.);
#83=EDGE_CURVE('',#69,#68,#51,.T.);
#84=ORIENTED_EDGE('',*,*,#70,.F.);
#85=ORIENTED_EDGE('',*,*,#71,.F.);
#86=ORIENTED_EDGE('',*,*,#72,.T.);
#87=ORIENTED_EDGE('',*,*,#73,.F.);
#88=ORIENTED_EDGE('',*,*,#72,.F.);
#89=ORIENTED_EDGE('',*,*,#74,.F.);
#90=ORIENTED_EDGE('',*,*,#75,.T.);
#91=ORIENTED_EDGE('',*,*,#76,.F.);
#92=ORIENTED_EDGE('',*,*,#75,.F.);
#93=ORIENTED_EDGE('',*,*,#70,.T.);
#94=ORIENTED_EDGE('',*,*,#71,.T.);
#95=ORIENTED_EDGE('',*,*,#77,.F.);
#96=ORIENTED_EDGE('',*,*,#78,.T.);
#97=ORIENTED_EDGE('',*,*,#79,.F.);
#98=ORIENTED_EDGE('',*,*,#80,.F.);
#99=ORIENTED_EDGE('',*,*,#78,.F.);
#100=ORIENTED_EDGE('',*,*,#77,.T.);
#101=ORIENTED_EDGE('',*,*,#73,.T.);
#102=ORIENTED_EDGE('',*,*,#81,.T.);
#103=ORIENTED_EDGE('',*,*,#74,.T.);
#104=ORIENTED_EDGE('',*,*,#82,.F.);
#105=ORIENTED_EDGE('',*,*,#83,.T.);
#106=ORIENTED_EDGE('',*,*,#81,.F.);
#107=ORIENTED_EDGE('',*,*,#83,.F.);
#108=ORIENTED_EDGE('',*,*,#79,.T.);
#109=ORIENTED_EDGE('',*,*,#80,.T.);
#110=ORIENTED_EDGE('',*,*,#82,.T.);
#111=ORIENTED_EDGE('',*,*,#76,.T.);
#112=CYLINDRICAL_SURFACE('',#143,17.85);
#113=CYLINDRICAL_SURFACE('',#145,66.9);
#114=CYLINDRICAL_SURFACE('',#148,19.05);
#115=CYLINDRICAL_SURFACE('',#153,69.9);
#116=ADVANCED_FACE('',(#23),#112,.F.);
#117=ADVANCED_FACE('',(#24,#18),#113,.F.);
#118=ADVANCED_FACE('',(#25),#114,.T.);
#119=ADVANCED_FACE('',(#26,#19),#15,.T.);
#120=ADVANCED_FACE('',(#27,#20),#16,.F.);
#121=ADVANCED_FACE('',(#28,#21),#115,.T.);
#122=ADVANCED_FACE('',(#29,#22),#17,.T.);
#123=CLOSED_SHELL('',(#116,#117,#118,#119,#120,#121,#122));
#124=DERIVED_UNIT_ELEMENT(#126,1.);
#125=DERIVED_UNIT_ELEMENT(#357,-3.);
#126=(
MASS_UNIT()
NAMED_UNIT(*)
SI_UNIT($,.GRAM.)
);
#127=DERIVED_UNIT((#124,#125));
#128=MEASURE_REPRESENTATION_ITEM('density measure',
POSITIVE_RATIO_MEASURE(1.),#127);
#129=PROPERTY_DEFINITION_REPRESENTATION(#134,#131);
#130=PROPERTY_DEFINITION_REPRESENTATION(#135,#132);
#131=REPRESENTATION('material name',(#133),#354);
#132=REPRESENTATION('density',(#128),#354);
#133=DESCRIPTIVE_REPRESENTATION_ITEM('\X2\4E00822C\X0\','\X2\4E00822C\X0\');
#134=PROPERTY_DEFINITION('material property','material name',#364);
#135=PROPERTY_DEFINITION('material property','density of part',#364);
#136=DATE_TIME_ROLE('creation_date');
#137=APPLIED_DATE_AND_TIME_ASSIGNMENT(#138,#136,(#364));
#138=DATE_AND_TIME(#139,#140);
#139=CALENDAR_DATE(2022,31,3);
#140=LOCAL_TIME(0,0,0.,#141);
#141=COORDINATED_UNIVERSAL_TIME_OFFSET(0,0,.BEHIND.);
#142=AXIS2_PLACEMENT_3D('placement',#188,#156,#157);
#143=AXIS2_PLACEMENT_3D('',#189,#158,#159);
#144=AXIS2_PLACEMENT_3D('',#262,#161,#162);
#145=AXIS2_PLACEMENT_3D('',#263,#163,#164);
#146=AXIS2_PLACEMENT_3D('',#265,#165,#166);
#147=AXIS2_PLACEMENT_3D('',#268,#168,#169);
#148=AXIS2_PLACEMENT_3D('',#269,#170,#171);
#149=AXIS2_PLACEMENT_3D('',#271,#172,#173);
#150=AXIS2_PLACEMENT_3D('',#343,#175,#176);
#151=AXIS2_PLACEMENT_3D('',#344,#177,#178);
#152=AXIS2_PLACEMENT_3D('',#346,#179,#180);
#153=AXIS2_PLACEMENT_3D('',#347,#181,#182);
#154=AXIS2_PLACEMENT_3D('',#349,#183,#184);
#155=AXIS2_PLACEMENT_3D('',#351,#186,#187);
#156=DIRECTION('axis',(0.,0.,1.));
#157=DIRECTION('refdir',(1.,0.,0.));
#158=DIRECTION('center_axis',(0.,0.,1.));
#159=DIRECTION('ref_axis',(1.,0.,0.));
#160=DIRECTION('',(0.,0.,1.));
#161=DIRECTION('center_axis',(0.,0.,-1.));
#162=DIRECTION('ref_axis',(1.,0.,0.));
#163=DIRECTION('center_axis',(1.,0.,0.));
#164=DIRECTION('ref_axis',(0.,1.,0.));
#165=DIRECTION('center_axis',(1.,0.,0.));
#166=DIRECTION('ref_axis',(0.,1.,0.));
#167=DIRECTION('',(1.,0.,0.));
#168=DIRECTION('center_axis',(-1.,0.,0.));
#169=DIRECTION('ref_axis',(0.,1.,0.));
#170=DIRECTION('center_axis',(0.,0.,1.));
#171=DIRECTION('ref_axis',(1.,0.,0.));
#172=DIRECTION('center_axis',(0.,0.,1.));
#173=DIRECTION('ref_axis',(1.,0.,0.));
#174=DIRECTION('',(0.,0.,-1.));
#175=DIRECTION('center_axis',(0.,0.,1.));
#176=DIRECTION('ref_axis',(1.,0.,0.));
#177=DIRECTION('center_axis',(1.,0.,0.));
#178=DIRECTION('ref_axis',(0.,0.,-1.));
#179=DIRECTION('center_axis',(-1.,0.,0.));
#180=DIRECTION('ref_axis',(0.,1.,0.));
#181=DIRECTION('center_axis',(1.,0.,0.));
#182=DIRECTION('ref_axis',(0.,1.,0.));
#183=DIRECTION('center_axis',(1.,0.,0.));
#184=DIRECTION('ref_axis',(0.,1.,0.));
#185=DIRECTION('',(-1.,0.,0.));
#186=DIRECTION('center_axis',(1.,0.,0.));
#187=DIRECTION('ref_axis',(0.,0.,-1.));
#188=CARTESIAN_POINT('',(0.,0.,0.));
#189=CARTESIAN_POINT('Origin',(0.,0.,0.));
#190=CARTESIAN_POINT('',(-2.77555756156289E-16,-17.85,64.4747043420906));
#191=CARTESIAN_POINT('',(-17.85,1.72257563861439E-17,66.9));
#192=CARTESIAN_POINT('Ctrl Pts',(-2.77555756156289E-16,-17.85,64.4747043420906));
#193=CARTESIAN_POINT('Ctrl Pts',(1.12665170366931,-17.85,64.4747043420906));
#194=CARTESIAN_POINT('Ctrl Pts',(2.28992592073472,-17.741613445913,64.5050430968244));
#195=CARTESIAN_POINT('Ctrl Pts',(4.60031561832729,-17.2871543247835,64.6283198597199));
#196=CARTESIAN_POINT('Ctrl Pts',(5.74745998190846,-16.9411995806893,64.7211508571316));
#197=CARTESIAN_POINT('Ctrl Pts',(7.94463885838044,-16.0287326204513,64.9531471770295));
#198=CARTESIAN_POINT('Ctrl Pts',(8.99652780085937,-15.4614956944131,65.0922604361431));
#199=CARTESIAN_POINT('Ctrl Pts',(10.9404405285445,-14.1528132428616,65.3892811939575));
#200=CARTESIAN_POINT('Ctrl Pts',(11.8324438331169,-13.4112682552428,65.5468844126731));
#201=CARTESIAN_POINT('Ctrl Pts',(13.4111238263147,-11.832588262045,65.8501768488187));
#202=CARTESIAN_POINT('Ctrl Pts',(14.1526522287609,-10.9406525443761,66.0066535561102));
#203=CARTESIAN_POINT('Ctrl Pts',(15.4613987315739,-8.99669897779683,66.2995897367946));
#204=CARTESIAN_POINT('Ctrl Pts',(16.0287096739564,-7.94470166999577,66.4357706602384));
#205=CARTESIAN_POINT('Ctrl Pts',(16.9412589449927,-5.74730947758647,66.6618207181727));
#206=CARTESIAN_POINT('Ctrl Pts',(17.2872221879717,-4.60006346312592,66.7516851663651));
#207=CARTESIAN_POINT('Ctrl Pts',(17.7416504710625,-2.28964482076878,66.8708126390675));
#208=CARTESIAN_POINT('Ctrl Pts',(17.85,-1.1264455742282,66.9));
#209=CARTESIAN_POINT('Ctrl Pts',(17.85,1.1264455742282,66.9));
#210=CARTESIAN_POINT('Ctrl Pts',(17.7416504710625,2.28964482076878,66.8708126390675));
#211=CARTESIAN_POINT('Ctrl Pts',(17.2872221879717,4.60006346312592,66.7516851663651));
#212=CARTESIAN_POINT('Ctrl Pts',(16.9412589449927,5.74730947758647,66.6618207181727));
#213=CARTESIAN_POINT('Ctrl Pts',(16.0287096739564,7.94470166999577,66.4357706602384));
#214=CARTESIAN_POINT('Ctrl Pts',(15.4613987315739,8.99669897779683,66.2995897367946));
#215=CARTESIAN_POINT('Ctrl Pts',(14.1526522287609,10.9406525443761,66.0066535561102));
#216=CARTESIAN_POINT('Ctrl Pts',(13.4111238263147,11.832588262045,65.8501768488187));
#217=CARTESIAN_POINT('Ctrl Pts',(11.8324438331169,13.4112682552428,65.5468844126731));
#218=CARTESIAN_POINT('Ctrl Pts',(10.9404405285445,14.1528132428616,65.3892811939575));
#219=CARTESIAN_POINT('Ctrl Pts',(8.99652780085937,15.4614956944131,65.0922604361431));
#220=CARTESIAN_POINT('Ctrl Pts',(7.94463885838044,16.0287326204513,64.9531471770295));
#221=CARTESIAN_POINT('Ctrl Pts',(5.74745998190846,16.9411995806893,64.7211508571316));
#222=CARTESIAN_POINT('Ctrl Pts',(4.60031561832729,17.2871543247835,64.6283198597199));
#223=CARTESIAN_POINT('Ctrl Pts',(2.28992592073472,17.741613445913,64.5050430968244));
#224=CARTESIAN_POINT('Ctrl Pts',(1.12665170366931,17.85,64.4747043420906));
#225=CARTESIAN_POINT('Ctrl Pts',(-1.12665170366931,17.85,64.4747043420906));
#226=CARTESIAN_POINT('Ctrl Pts',(-2.28992592073471,17.741613445913,64.5050430968244));
#227=CARTESIAN_POINT('Ctrl Pts',(-4.60031561832728,17.2871543247835,64.6283198597199));
#228=CARTESIAN_POINT('Ctrl Pts',(-5.74745998190845,16.9411995806893,64.7211508571316));
#229=CARTESIAN_POINT('Ctrl Pts',(-7.94463885838044,16.0287326204513,64.9531471770295));
#230=CARTESIAN_POINT('Ctrl Pts',(-8.99652780085937,15.4614956944131,65.0922604361431));
#231=CARTESIAN_POINT('Ctrl Pts',(-10.9404405285445,14.1528132428616,65.3892811939575));
#232=CARTESIAN_POINT('Ctrl Pts',(-11.8324438331169,13.4112682552428,65.5468844126731));
#233=CARTESIAN_POINT('Ctrl Pts',(-13.4111238263147,11.832588262045,65.8501768488187));
#234=CARTESIAN_POINT('Ctrl Pts',(-14.1526522287609,10.9406525443761,66.0066535561102));
#235=CARTESIAN_POINT('Ctrl Pts',(-15.4613987315739,8.99669897779683,66.2995897367946));
#236=CARTESIAN_POINT('Ctrl Pts',(-16.0287096739564,7.94470166999577,66.4357706602384));
#237=CARTESIAN_POINT('Ctrl Pts',(-16.9412589449927,5.74730947758647,66.6618207181727));
#238=CARTESIAN_POINT('Ctrl Pts',(-17.2872221879717,4.60006346312592,66.7516851663651));
#239=CARTESIAN_POINT('Ctrl Pts',(-17.7416504710625,2.28964482076878,66.8708126390675));
#240=CARTESIAN_POINT('Ctrl Pts',(-17.85,1.1264455742282,66.9));
#241=CARTESIAN_POINT('Ctrl Pts',(-17.85,-2.4980018054066E-15,66.9));
#242=CARTESIAN_POINT('Ctrl Pts',(-17.85,2.77555756156289E-15,66.9));
#243=CARTESIAN_POINT('Ctrl Pts',(-17.85,-1.1264455742282,66.9));
#244=CARTESIAN_POINT('Ctrl Pts',(-17.7416504710625,-2.28964482076878,66.8708126390675));
#245=CARTESIAN_POINT('Ctrl Pts',(-17.2872221879717,-4.60006346312592,66.7516851663651));
#246=CARTESIAN_POINT('Ctrl Pts',(-16.9412589449927,-5.74730947758646,66.6618207181727));
#247=CARTESIAN_POINT('Ctrl Pts',(-16.0287096739564,-7.94470166999576,66.4357706602384));
#248=CARTESIAN_POINT('Ctrl Pts',(-15.4613987315739,-8.99669897779683,66.2995897367946));
#249=CARTESIAN_POINT('Ctrl Pts',(-14.1526522287609,-10.9406525443761,66.0066535561102));
#250=CARTESIAN_POINT('Ctrl Pts',(-13.4111238263147,-11.832588262045,65.8501768488187));
#251=CARTESIAN_POINT('Ctrl Pts',(-11.8324438331169,-13.4112682552428,65.5468844126731));
#252=CARTESIAN_POINT('Ctrl Pts',(-10.9404405285445,-14.1528132428616,65.3892811939575));
#253=CARTESIAN_POINT('Ctrl Pts',(-8.99652780085937,-15.4614956944131,65.0922604361431));
#254=CARTESIAN_POINT('Ctrl Pts',(-7.94463885838044,-16.0287326204513,64.9531471770295));
#255=CARTESIAN_POINT('Ctrl Pts',(-5.74745998190846,-16.9411995806893,64.7211508571316));
#256=CARTESIAN_POINT('Ctrl Pts',(-4.60031561832729,-17.2871543247835,64.6283198597199));
#257=CARTESIAN_POINT('Ctrl Pts',(-2.28992592073472,-17.741613445913,64.5050430968244));
#258=CARTESIAN_POINT('Ctrl Pts',(-1.12665170366931,-17.85,64.4747043420906));
#259=CARTESIAN_POINT('Ctrl Pts',(-2.77555756156289E-16,-17.85,64.4747043420906));
#260=CARTESIAN_POINT('',(-17.85,2.18599453647803E-15,145.));
#261=CARTESIAN_POINT('',(-17.85,-2.18599453647803E-15,0.));
#262=CARTESIAN_POINT('Origin',(0.,0.,145.));
#263=CARTESIAN_POINT('Origin',(0.,0.,0.));
#264=CARTESIAN_POINT('',(-145.,-66.9,-8.19288708629579E-15));
#265=CARTESIAN_POINT('Origin',(-145.,0.,0.));
#266=CARTESIAN_POINT('',(145.,-66.9,8.19288708629579E-15));
#267=CARTESIAN_POINT('',(0.,-66.9,-8.19288708629579E-15));
#268=CARTESIAN_POINT('Origin',(145.,0.,0.));
#269=CARTESIAN_POINT('Origin',(0.,0.,0.));
#270=CARTESIAN_POINT('',(-19.05,-2.33295215237571E-15,145.));
#271=CARTESIAN_POINT('Origin',(0.,0.,145.));
#272=CARTESIAN_POINT('',(-19.05,-2.13792122273487E-15,69.9));
#273=CARTESIAN_POINT('',(-19.05,-2.33295215237571E-15,0.));
#274=CARTESIAN_POINT('',(-5.55111512312578E-16,-19.05,67.2540519225422));
#275=CARTESIAN_POINT('Ctrl Pts',(0.,-19.05,67.2540519225422));
#276=CARTESIAN_POINT('Ctrl Pts',(-1.20268645155511,-19.05,67.2540519225422));
#277=CARTESIAN_POINT('Ctrl Pts',(-2.44437286103664,-18.934270614745,67.2871961711429));
#278=CARTESIAN_POINT('Ctrl Pts',(-4.91031825664032,-18.4491283554338,67.4218290700652));
#279=CARTESIAN_POINT('Ctrl Pts',(-6.1346086500776,-18.0798423066418,67.523199412038));
#280=CARTESIAN_POINT('Ctrl Pts',(-8.47940592445015,-17.1059584944704,67.7764658572624));
#281=CARTESIAN_POINT('Ctrl Pts',(-9.60189678898084,-16.5005873275326,67.9283039381198));
#282=CARTESIAN_POINT('Ctrl Pts',(-11.6762238816813,-15.1040259547834,68.2524157665258));
#283=CARTESIAN_POINT('Ctrl Pts',(-12.6280397964724,-14.312728566735,68.4243575900611));
#284=CARTESIAN_POINT('Ctrl Pts',(-14.312560306669,-12.6282080565385,68.7551814596461));
#285=CARTESIAN_POINT('Ctrl Pts',(-15.103838303233,-11.6764709486429,68.9258391079128));
#286=CARTESIAN_POINT('Ctrl Pts',(-16.5004741958161,-9.60209647170881,69.245295969344));
#287=CARTESIAN_POINT('Ctrl Pts',(-17.105931586257,-8.47947947731596,69.3937924238522));
#288=CARTESIAN_POINT('Ctrl Pts',(-18.0799113362305,-6.13443368220566,69.6402808897279));
#289=CARTESIAN_POINT('Ctrl Pts',(-18.4492073714235,-4.91002474172284,69.7382688280573));
#290=CARTESIAN_POINT('Ctrl Pts',(-18.9343137649957,-2.44404538596148,69.8681696071277));
#291=CARTESIAN_POINT('Ctrl Pts',(-19.05,-1.20244621240189,69.9));
#292=CARTESIAN_POINT('Ctrl Pts',(-19.05,-1.94289029309402E-15,69.9));
#293=CARTESIAN_POINT('Ctrl Pts',(-19.05,-1.94289029309402E-15,69.9));
#294=CARTESIAN_POINT('Ctrl Pts',(-19.05,1.20244621240189,69.9));
#295=CARTESIAN_POINT('Ctrl Pts',(-18.9343137649957,2.44404538596148,69.8681696071277));
#296=CARTESIAN_POINT('Ctrl Pts',(-18.4492073714235,4.91002474172284,69.7382688280573));
#297=CARTESIAN_POINT('Ctrl Pts',(-18.0799113362305,6.13443368220566,69.6402808897279));
#298=CARTESIAN_POINT('Ctrl Pts',(-17.105931586257,8.47947947731596,69.3937924238522));
#299=CARTESIAN_POINT('Ctrl Pts',(-16.5004741958161,9.6020964717088,69.245295969344));
#300=CARTESIAN_POINT('Ctrl Pts',(-15.103838303233,11.6764709486428,68.9258391079128));
#301=CARTESIAN_POINT('Ctrl Pts',(-14.312560306669,12.6282080565385,68.7551814596461));
#302=CARTESIAN_POINT('Ctrl Pts',(-12.6280397964724,14.312728566735,68.4243575900611));
#303=CARTESIAN_POINT('Ctrl Pts',(-11.6762238816813,15.1040259547834,68.2524157665258));
#304=CARTESIAN_POINT('Ctrl Pts',(-9.60189678898085,16.5005873275326,67.9283039381198));
#305=CARTESIAN_POINT('Ctrl Pts',(-8.47940592445015,17.1059584944704,67.7764658572624));
#306=CARTESIAN_POINT('Ctrl Pts',(-6.13460865007759,18.0798423066418,67.523199412038));
#307=CARTESIAN_POINT('Ctrl Pts',(-4.91031825664031,18.4491283554338,67.4218290700652));
#308=CARTESIAN_POINT('Ctrl Pts',(-2.44437286103664,18.934270614745,67.2871961711429));
#309=CARTESIAN_POINT('Ctrl Pts',(-1.20268645155511,19.05,67.2540519225422));
#310=CARTESIAN_POINT('Ctrl Pts',(1.20268645155511,19.05,67.2540519225422));
#311=CARTESIAN_POINT('Ctrl Pts',(2.44437286103664,18.934270614745,67.2871961711429));
#312=CARTESIAN_POINT('Ctrl Pts',(4.91031825664031,18.4491283554338,67.4218290700651));
#313=CARTESIAN_POINT('Ctrl Pts',(6.13460865007759,18.0798423066418,67.523199412038));
#314=CARTESIAN_POINT('Ctrl Pts',(8.47940592445014,17.1059584944704,67.7764658572624));
#315=CARTESIAN_POINT('Ctrl Pts',(9.60189678898083,16.5005873275326,67.9283039381198));
#316=CARTESIAN_POINT('Ctrl Pts',(11.6762238816813,15.1040259547834,68.2524157665258));
#317=CARTESIAN_POINT('Ctrl Pts',(12.6280397964724,14.312728566735,68.4243575900611));
#318=CARTESIAN_POINT('Ctrl Pts',(14.312560306669,12.6282080565385,68.7551814596461));
#319=CARTESIAN_POINT('Ctrl Pts',(15.103838303233,11.6764709486429,68.9258391079128));
#320=CARTESIAN_POINT('Ctrl Pts',(16.5004741958161,9.60209647170881,69.245295969344));
#321=CARTESIAN_POINT('Ctrl Pts',(17.105931586257,8.47947947731596,69.3937924238522));
#322=CARTESIAN_POINT('Ctrl Pts',(18.0799113362305,6.13443368220566,69.6402808897279));
#323=CARTESIAN_POINT('Ctrl Pts',(18.4492073714235,4.91002474172284,69.7382688280573));
#324=CARTESIAN_POINT('Ctrl Pts',(18.9343137649957,2.44404538596148,69.8681696071277));
#325=CARTESIAN_POINT('Ctrl Pts',(19.05,1.20244621240189,69.9));
#326=CARTESIAN_POINT('Ctrl Pts',(19.05,-1.20244621240188,69.9));
#327=CARTESIAN_POINT('Ctrl Pts',(18.9343137649957,-2.44404538596147,69.8681696071277));
#328=CARTESIAN_POINT('Ctrl Pts',(18.4492073714235,-4.91002474172283,69.7382688280573));
#329=CARTESIAN_POINT('Ctrl Pts',(18.0799113362305,-6.13443368220566,69.6402808897279));
#330=CARTESIAN_POINT('Ctrl Pts',(17.105931586257,-8.47947947731596,69.3937924238522));
#331=CARTESIAN_POINT('Ctrl Pts',(16.5004741958161,-9.60209647170881,69.245295969344));
#332=CARTESIAN_POINT('Ctrl Pts',(15.103838303233,-11.6764709486429,68.9258391079128));
#333=CARTESIAN_POINT('Ctrl Pts',(14.312560306669,-12.6282080565385,68.7551814596461));
#334=CARTESIAN_POINT('Ctrl Pts',(12.6280397964724,-14.312728566735,68.4243575900611));
#335=CARTESIAN_POINT('Ctrl Pts',(11.6762238816813,-15.1040259547834,68.2524157665258));
#336=CARTESIAN_POINT('Ctrl Pts',(9.60189678898085,-16.5005873275326,67.9283039381198));
#337=CARTESIAN_POINT('Ctrl Pts',(8.47940592445016,-17.1059584944704,67.7764658572624));
#338=CARTESIAN_POINT('Ctrl Pts',(6.1346086500776,-18.0798423066418,67.523199412038));
#339=CARTESIAN_POINT('Ctrl Pts',(4.91031825664032,-18.4491283554338,67.4218290700652));
#340=CARTESIAN_POINT('Ctrl Pts',(2.44437286103664,-18.934270614745,67.2871961711429));
#341=CARTESIAN_POINT('Ctrl Pts',(1.20268645155511,-19.05,67.2540519225422));
#342=CARTESIAN_POINT('Ctrl Pts',(-8.32667268468867E-16,-19.05,67.2540519225422));
#343=CARTESIAN_POINT('Origin',(0.,0.,145.));
#344=CARTESIAN_POINT('Origin',(-145.,0.,0.));
#345=CARTESIAN_POINT('',(-145.,-69.9,-8.56028112604E-15));
#346=CARTESIAN_POINT('Origin',(-145.,0.,0.));
#347=CARTESIAN_POINT('Origin',(0.,0.,0.));
#348=CARTESIAN_POINT('',(145.,-69.9,-8.56028112604E-15));
#349=CARTESIAN_POINT('Origin',(145.,0.,0.));
#350=CARTESIAN_POINT('',(0.,-69.9,-8.56028112604E-15));
#351=CARTESIAN_POINT('Origin',(145.,0.,0.));
#352=UNCERTAINTY_MEASURE_WITH_UNIT(LENGTH_MEASURE(0.01),#356,
'DISTANCE_ACCURACY_VALUE',
'Maximum model space distance between geometric entities at asserted c
onnectivities');
#353=UNCERTAINTY_MEASURE_WITH_UNIT(LENGTH_MEASURE(0.01),#356,
'DISTANCE_ACCURACY_VALUE',
'Maximum model space distance between geometric entities at asserted c
onnectivities');
#354=(
GEOMETRIC_REPRESENTATION_CONTEXT(3)
GLOBAL_UNCERTAINTY_ASSIGNED_CONTEXT((#352))
GLOBAL_UNIT_ASSIGNED_CONTEXT((#356,#358,#359))
REPRESENTATION_CONTEXT('','3D')
);
#355=(
GEOMETRIC_REPRESENTATION_CONTEXT(3)
GLOBAL_UNCERTAINTY_ASSIGNED_CONTEXT((#353))
GLOBAL_UNIT_ASSIGNED_CONTEXT((#356,#358,#359))
REPRESENTATION_CONTEXT('','3D')
);
#356=(
LENGTH_UNIT()
NAMED_UNIT(*)
SI_UNIT(.MILLI.,.METRE.)
);
#357=(
LENGTH_UNIT()
NAMED_UNIT(*)
SI_UNIT(.CENTI.,.METRE.)
);
#358=(
NAMED_UNIT(*)
PLANE_ANGLE_UNIT()
SI_UNIT($,.RADIAN.)
);
#359=(
NAMED_UNIT(*)
SI_UNIT($,.STERADIAN.)
SOLID_ANGLE_UNIT()
);
#360=SHAPE_DEFINITION_REPRESENTATION(#361,#362);
#361=PRODUCT_DEFINITION_SHAPE('',$,#364);
#362=SHAPE_REPRESENTATION('',(#142),#354);
#363=PRODUCT_DEFINITION_CONTEXT('part definition',#368,'design');
#364=PRODUCT_DEFINITION('D8(R) 50\X\D715','D8(R) 50\X\D715',#365,#363);
#365=PRODUCT_DEFINITION_FORMATION('',$,#370);
#366=PRODUCT_RELATED_PRODUCT_CATEGORY('D8(R) 50\X\D715','D8(R) 50\X\D7
15',(#370));
#367=APPLICATION_PROTOCOL_DEFINITION('international standard',
'automotive_design',2009,#368);
#368=APPLICATION_CONTEXT(
'Core Data for Automotive Mechanical Design Process');
#369=PRODUCT_CONTEXT('part definition',#368,'mechanical');
#370=PRODUCT('D8(R) 50\X\D715','D8(R) 50\X\D715',$,(#369));
#371=PRESENTATION_STYLE_ASSIGNMENT((#372));
#372=SURFACE_STYLE_USAGE(.BOTH.,#375);
#373=SURFACE_STYLE_RENDERING_WITH_PROPERTIES($,#379,(#374));
#374=SURFACE_STYLE_TRANSPARENT(0.);
#375=SURFACE_SIDE_STYLE('',(#376,#373));
#376=SURFACE_STYLE_FILL_AREA(#377);
#377=FILL_AREA_STYLE('',(#378));
#378=FILL_AREA_STYLE_COLOUR('',#379);
#379=COLOUR_RGB('',0.749019607843137,0.749019607843137,0.749019607843137);
ENDSEC;
END-ISO-10303-21;
