ISO-10303-21;
HEADER;
/* Generated by software containing ST-Developer
 * from STEP Tools, Inc. (www.steptools.com) 
 */

FILE_DESCRIPTION(
/* description */ (''),
/* implementation_level */ '2;1');

FILE_NAME(
/* name */ 
'\\\\Tske00\\w\\Work\\TOSTE\\\X2\7D99624B\X0\\\02_\X2\6EB663A5\X0\\\\X2\6EB663A5752830C130FC30BA\X0\\\
D8(R)\\D8(R) 45\X\D735.stp',
/* time_stamp */ '2022-04-12T17:50:40+09:00',
/* author */ ('3dcad-eng'),
/* organization */ (''),
/* preprocessor_version */ 'ST-DEVELOPER v18.1',
/* originating_system */ 'Autodesk Inventor 2022',
/* authorisation */ '');

FILE_SCHEMA (('AUTOMOTIVE_DESIGN { 1 0 10303 214 3 1 1 }'));
ENDSEC;

DATA;
#10=MECHANICAL_DESIGN_GEOMETRIC_PRESENTATION_REPRESENTATION('',(#13),#355);
#11=SHAPE_REPRESENTATION_RELATIONSHIP('SRR','None',#362,#12);
#12=ADVANCED_BREP_SHAPE_REPRESENTATION('',(#14),#354);
#13=STYLED_ITEM('',(#371),#14);
#14=MANIFOLD_SOLID_BREP('\X2\30BD30EA30C330C9\X0\1',#123);
#15=PLANE('',#150);
#16=PLANE('',#151);
#17=PLANE('',#155);
#18=FACE_BOUND('',#32,.T.);
#19=FACE_BOUND('',#35,.T.);
#20=FACE_BOUND('',#37,.T.);
#21=FACE_BOUND('',#39,.T.);
#22=FACE_BOUND('',#41,.T.);
#23=FACE_OUTER_BOUND('',#30,.T.);
#24=FACE_OUTER_BOUND('',#31,.T.);
#25=FACE_OUTER_BOUND('',#33,.T.);
#26=FACE_OUTER_BOUND('',#34,.T.);
#27=FACE_OUTER_BOUND('',#36,.T.);
#28=FACE_OUTER_BOUND('',#38,.T.);
#29=FACE_OUTER_BOUND('',#40,.T.);
#30=EDGE_LOOP('',(#84,#85,#86,#87,#88));
#31=EDGE_LOOP('',(#89,#90,#91,#92));
#32=EDGE_LOOP('',(#93,#94));
#33=EDGE_LOOP('',(#95,#96,#97,#98,#99));
#34=EDGE_LOOP('',(#100));
#35=EDGE_LOOP('',(#101));
#36=EDGE_LOOP('',(#102));
#37=EDGE_LOOP('',(#103));
#38=EDGE_LOOP('',(#104,#105,#106,#107));
#39=EDGE_LOOP('',(#108,#109));
#40=EDGE_LOOP('',(#110));
#41=EDGE_LOOP('',(#111));
#42=CIRCLE('',#144,42.55);
#43=CIRCLE('',#146,54.15);
#44=CIRCLE('',#147,54.15);
#45=CIRCLE('',#149,44.55);
#46=CIRCLE('',#152,57.15);
#47=CIRCLE('',#154,57.15);
#48=LINE('',#261,#52);
#49=LINE('',#267,#53);
#50=LINE('',#273,#54);
#51=LINE('',#350,#55);
#52=VECTOR('',#160,42.55);
#53=VECTOR('',#167,54.15);
#54=VECTOR('',#174,44.55);
#55=VECTOR('',#185,57.15);
#56=B_SPLINE_CURVE_WITH_KNOTS('',3,(#192,#193,#194,#195,#196,#197,#198,
#199,#200,#201,#202,#203,#204,#205,#206,#207,#208,#209,#210,#211,#212,#213,
#214,#215,#216,#217,#218,#219,#220,#221,#222,#223,#224,#225,#226,#227,#228,
#229,#230,#231,#232,#233,#234,#235,#236,#237,#238,#239,#240,#241),
 .UNSPECIFIED.,.F.,.F.,(4,2,2,2,2,2,2,2,2,2,2,2,2,2,2,2,2,2,2,2,2,2,2,2,
4),(0.,0.867697847769242,1.73539569553848,2.60309354330773,3.47079139107697,
4.31436425975149,5.15793712842602,6.00150999710054,6.84508286577507,7.68865573444959,
8.53222860312412,9.37580147179865,10.2193743404732,11.0870721882424,11.9547700360117,
12.8224678837809,13.6901657315501,14.5578635793194,15.4255614270886,16.2932592748579,
17.1609571226271,18.0045299913016,18.8481028599762,19.6916757286507,20.5352485973252),
 .UNSPECIFIED.);
#57=B_SPLINE_CURVE_WITH_KNOTS('',3,(#242,#243,#244,#245,#246,#247,#248,
#249,#250,#251,#252,#253,#254,#255,#256,#257,#258,#259),.UNSPECIFIED.,.F.,
 .F.,(4,2,2,2,2,2,2,2,4),(20.5352485973252,21.3788214659997,22.2223943346743,
23.0659672033488,23.9095400720233,24.7772379197925,25.6449357675618,26.512633615331,
27.3803314631003),.UNSPECIFIED.);
#58=B_SPLINE_CURVE_WITH_KNOTS('',3,(#275,#276,#277,#278,#279,#280,#281,
#282,#283,#284,#285,#286,#287,#288,#289,#290,#291,#292),.UNSPECIFIED.,.F.,
 .F.,(4,2,2,2,2,2,2,2,4),(0.,0.906376052139056,1.81275210427811,2.71912815641717,
3.62550420855623,4.50788562774792,5.39026704693962,6.27264846613132,7.15502988532301),
 .UNSPECIFIED.);
#59=B_SPLINE_CURVE_WITH_KNOTS('',3,(#293,#294,#295,#296,#297,#298,#299,
#300,#301,#302,#303,#304,#305,#306,#307,#308,#309,#310,#311,#312,#313,#314,
#315,#316,#317,#318,#319,#320,#321,#322,#323,#324,#325,#326,#327,#328,#329,
#330,#331,#332,#333,#334,#335,#336,#337,#338,#339,#340,#341,#342),
 .UNSPECIFIED.,.F.,.F.,(4,2,2,2,2,2,2,2,2,2,2,2,2,2,2,2,2,2,2,2,2,2,2,2,
4),(7.15502988532301,8.03741130451471,8.9197927237064,9.8021741428981,10.6845555620898,
11.5909316142289,12.4973076663679,13.403683718507,14.310059770646,15.2164358227851,
16.1228118749241,17.0291879270632,17.9355639792023,18.8179453983939,19.7003268175856,
20.5827082367773,21.465089655969,22.3474710751607,23.2298524943524,24.1122339135441,
24.9946153327358,25.9009913848749,26.8073674370139,27.713743489153,28.6201195412921),
 .UNSPECIFIED.);
#60=VERTEX_POINT('',#190);
#61=VERTEX_POINT('',#191);
#62=VERTEX_POINT('',#260);
#63=VERTEX_POINT('',#264);
#64=VERTEX_POINT('',#266);
#65=VERTEX_POINT('',#270);
#66=VERTEX_POINT('',#272);
#67=VERTEX_POINT('',#274);
#68=VERTEX_POINT('',#345);
#69=VERTEX_POINT('',#348);
#70=EDGE_CURVE('',#60,#61,#56,.T.);
#71=EDGE_CURVE('',#61,#60,#57,.T.);
#72=EDGE_CURVE('',#61,#62,#48,.T.);
#73=EDGE_CURVE('',#62,#62,#42,.T.);
#74=EDGE_CURVE('',#63,#63,#43,.T.);
#75=EDGE_CURVE('',#63,#64,#49,.T.);
#76=EDGE_CURVE('',#64,#64,#44,.T.);
#77=EDGE_CURVE('',#65,#65,#45,.T.);
#78=EDGE_CURVE('',#65,#66,#50,.T.);
#79=EDGE_CURVE('',#67,#66,#58,.T.);
#80=EDGE_CURVE('',#66,#67,#59,.T.);
#81=EDGE_CURVE('',#68,#68,#46,.T.);
#82=EDGE_CURVE('',#69,#69,#47,.T.);
#83=EDGE_CURVE('',#69,#68,#51,.T.);
#84=ORIENTED_EDGE('',*,*,#70,.F.);
#85=ORIENTED_EDGE('',*,*,#71,.F.);
#86=ORIENTED_EDGE('',*,*,#72,.T.);
#87=ORIENTED_EDGE('',*,*,#73,.F.);
#88=ORIENTED_EDGE('',*,*,#72,.F.);
#89=ORIENTED_EDGE('',*,*,#74,.F.);
#90=ORIENTED_EDGE('',*,*,#75,.T.);
#91=ORIENTED_EDGE('',*,*,#76,.F.);
#92=ORIENTED_EDGE('',*,*,#75,.F.);
#93=ORIENTED_EDGE('',*,*,#70,.T.);
#94=ORIENTED_EDGE('',*,*,#71,.T.);
#95=ORIENTED_EDGE('',*,*,#77,.F.);
#96=ORIENTED_EDGE('',*,*,#78,.T.);
#97=ORIENTED_EDGE('',*,*,#79,.F.);
#98=ORIENTED_EDGE('',*,*,#80,.F.);
#99=ORIENTED_EDGE('',*,*,#78,.F.);
#100=ORIENTED_EDGE('',*,*,#77,.T.);
#101=ORIENTED_EDGE('',*,*,#73,.T.);
#102=ORIENTED_EDGE('',*,*,#81,.T.);
#103=ORIENTED_EDGE('',*,*,#74,.T.);
#104=ORIENTED_EDGE('',*,*,#82,.F.);
#105=ORIENTED_EDGE('',*,*,#83,.T.);
#106=ORIENTED_EDGE('',*,*,#81,.F.);
#107=ORIENTED_EDGE('',*,*,#83,.F.);
#108=ORIENTED_EDGE('',*,*,#79,.T.);
#109=ORIENTED_EDGE('',*,*,#80,.T.);
#110=ORIENTED_EDGE('',*,*,#82,.T.);
#111=ORIENTED_EDGE('',*,*,#76,.T.);
#112=CYLINDRICAL_SURFACE('',#143,42.55);
#113=CYLINDRICAL_SURFACE('',#145,54.15);
#114=CYLINDRICAL_SURFACE('',#148,44.55);
#115=CYLINDRICAL_SURFACE('',#153,57.15);
#116=ADVANCED_FACE('',(#23),#112,.F.);
#117=ADVANCED_FACE('',(#24,#18),#113,.F.);
#118=ADVANCED_FACE('',(#25),#114,.T.);
#119=ADVANCED_FACE('',(#26,#19),#15,.T.);
#120=ADVANCED_FACE('',(#27,#20),#16,.F.);
#121=ADVANCED_FACE('',(#28,#21),#115,.T.);
#122=ADVANCED_FACE('',(#29,#22),#17,.T.);
#123=CLOSED_SHELL('',(#116,#117,#118,#119,#120,#121,#122));
#124=DERIVED_UNIT_ELEMENT(#126,1.);
#125=DERIVED_UNIT_ELEMENT(#357,-3.);
#126=(
MASS_UNIT()
NAMED_UNIT(*)
SI_UNIT($,.GRAM.)
);
#127=DERIVED_UNIT((#124,#125));
#128=MEASURE_REPRESENTATION_ITEM('density measure',
POSITIVE_RATIO_MEASURE(1.),#127);
#129=PROPERTY_DEFINITION_REPRESENTATION(#134,#131);
#130=PROPERTY_DEFINITION_REPRESENTATION(#135,#132);
#131=REPRESENTATION('material name',(#133),#354);
#132=REPRESENTATION('density',(#128),#354);
#133=DESCRIPTIVE_REPRESENTATION_ITEM('\X2\4E00822C\X0\','\X2\4E00822C\X0\');
#134=PROPERTY_DEFINITION('material property','material name',#364);
#135=PROPERTY_DEFINITION('material property','density of part',#364);
#136=DATE_TIME_ROLE('creation_date');
#137=APPLIED_DATE_AND_TIME_ASSIGNMENT(#138,#136,(#364));
#138=DATE_AND_TIME(#139,#140);
#139=CALENDAR_DATE(2022,31,3);
#140=LOCAL_TIME(0,0,0.,#141);
#141=COORDINATED_UNIVERSAL_TIME_OFFSET(0,0,.BEHIND.);
#142=AXIS2_PLACEMENT_3D('placement',#188,#156,#157);
#143=AXIS2_PLACEMENT_3D('',#189,#158,#159);
#144=AXIS2_PLACEMENT_3D('',#262,#161,#162);
#145=AXIS2_PLACEMENT_3D('',#263,#163,#164);
#146=AXIS2_PLACEMENT_3D('',#265,#165,#166);
#147=AXIS2_PLACEMENT_3D('',#268,#168,#169);
#148=AXIS2_PLACEMENT_3D('',#269,#170,#171);
#149=AXIS2_PLACEMENT_3D('',#271,#172,#173);
#150=AXIS2_PLACEMENT_3D('',#343,#175,#176);
#151=AXIS2_PLACEMENT_3D('',#344,#177,#178);
#152=AXIS2_PLACEMENT_3D('',#346,#179,#180);
#153=AXIS2_PLACEMENT_3D('',#347,#181,#182);
#154=AXIS2_PLACEMENT_3D('',#349,#183,#184);
#155=AXIS2_PLACEMENT_3D('',#351,#186,#187);
#156=DIRECTION('axis',(0.,0.,1.));
#157=DIRECTION('refdir',(1.,0.,0.));
#158=DIRECTION('center_axis',(0.,0.,1.));
#159=DIRECTION('ref_axis',(1.,0.,0.));
#160=DIRECTION('',(0.,0.,1.));
#161=DIRECTION('center_axis',(0.,0.,-1.));
#162=DIRECTION('ref_axis',(1.,0.,0.));
#163=DIRECTION('center_axis',(1.,0.,0.));
#164=DIRECTION('ref_axis',(0.,1.,0.));
#165=DIRECTION('center_axis',(1.,0.,0.));
#166=DIRECTION('ref_axis',(0.,1.,0.));
#167=DIRECTION('',(1.,0.,0.));
#168=DIRECTION('center_axis',(-1.,0.,0.));
#169=DIRECTION('ref_axis',(0.,1.,0.));
#170=DIRECTION('center_axis',(0.,0.,1.));
#171=DIRECTION('ref_axis',(1.,0.,0.));
#172=DIRECTION('center_axis',(0.,0.,1.));
#173=DIRECTION('ref_axis',(1.,0.,0.));
#174=DIRECTION('',(0.,0.,-1.));
#175=DIRECTION('center_axis',(0.,0.,1.));
#176=DIRECTION('ref_axis',(1.,0.,0.));
#177=DIRECTION('center_axis',(1.,0.,0.));
#178=DIRECTION('ref_axis',(0.,0.,-1.));
#179=DIRECTION('center_axis',(-1.,0.,0.));
#180=DIRECTION('ref_axis',(0.,1.,0.));
#181=DIRECTION('center_axis',(1.,0.,0.));
#182=DIRECTION('ref_axis',(0.,1.,0.));
#183=DIRECTION('center_axis',(1.,0.,0.));
#184=DIRECTION('ref_axis',(0.,1.,0.));
#185=DIRECTION('',(-1.,0.,0.));
#186=DIRECTION('center_axis',(1.,0.,0.));
#187=DIRECTION('ref_axis',(0.,0.,-1.));
#188=CARTESIAN_POINT('',(0.,0.,0.));
#189=CARTESIAN_POINT('Origin',(0.,0.,0.));
#190=CARTESIAN_POINT('',(1.11022302462516E-15,-42.55,33.4920886180602));
#191=CARTESIAN_POINT('',(-42.55,1.00278876484576E-15,54.15));
#192=CARTESIAN_POINT('Ctrl Pts',(1.11022302462516E-15,-42.55,33.4920886180602));
#193=CARTESIAN_POINT('Ctrl Pts',(2.89232615923081,-42.55,33.4920886180602));
#194=CARTESIAN_POINT('Ctrl Pts',(5.77200710289065,-42.2530514940233,33.8778821056116));
#195=CARTESIAN_POINT('Ctrl Pts',(11.3592447832644,-41.1047928207927,35.2622639109171));
#196=CARTESIAN_POINT('Ctrl Pts',(14.0686313291727,-40.2539774345165,36.2538682198963));
#197=CARTESIAN_POINT('Ctrl Pts',(19.2116744496299,-38.0686326296918,38.5422463364853));
#198=CARTESIAN_POINT('Ctrl Pts',(21.6495575779627,-36.7320219310959,39.8377881293269));
#199=CARTESIAN_POINT('Ctrl Pts',(26.1630974573054,-33.6665577312698,42.4600246090536));
#200=CARTESIAN_POINT('Ctrl Pts',(28.238271725736,-31.9365153532392,43.7861597564984));
#201=CARTESIAN_POINT('Ctrl Pts',(31.8851034185259,-28.2896836604493,46.2232773932007));
#202=CARTESIAN_POINT('Ctrl Pts',(33.602917535314,-26.2449220762749,47.4315176321679));
#203=CARTESIAN_POINT('Ctrl Pts',(36.6806989645355,-21.7365665594697,49.6595053735555));
#204=CARTESIAN_POINT('Ctrl Pts',(38.0407433588699,-19.2725915867617,50.6783752518845));
#205=CARTESIAN_POINT('Ctrl Pts',(40.2602985605878,-14.058427514483,52.3649805051588));
#206=CARTESIAN_POINT('Ctrl Pts',(41.1217108553147,-11.3022219724776,53.0338244602795));
#207=CARTESIAN_POINT('Ctrl Pts',(42.2668154633834,-5.6790523729827,53.9265715823877));
#208=CARTESIAN_POINT('Ctrl Pts',(42.55,-2.81190956224841,54.15));
#209=CARTESIAN_POINT('Ctrl Pts',(42.55,2.81190956224842,54.15));
#210=CARTESIAN_POINT('Ctrl Pts',(42.2668154633834,5.6790523729827,53.9265715823877));
#211=CARTESIAN_POINT('Ctrl Pts',(41.1217108553147,11.3022219724776,53.0338244602795));
#212=CARTESIAN_POINT('Ctrl Pts',(40.2602985605878,14.058427514483,52.3649805051588));
#213=CARTESIAN_POINT('Ctrl Pts',(38.0407433588699,19.2725915867617,50.6783752518845));
#214=CARTESIAN_POINT('Ctrl Pts',(36.6806989645355,21.7365665594697,49.6595053735555));
#215=CARTESIAN_POINT('Ctrl Pts',(33.602917535314,26.2449220762749,47.4315176321679));
#216=CARTESIAN_POINT('Ctrl Pts',(31.8851034185259,28.2896836604493,46.2232773932007));
#217=CARTESIAN_POINT('Ctrl Pts',(28.238271725736,31.9365153532392,43.7861597564984));
#218=CARTESIAN_POINT('Ctrl Pts',(26.1630974573054,33.6665577312698,42.4600246090536));
#219=CARTESIAN_POINT('Ctrl Pts',(21.6495575779627,36.7320219310959,39.8377881293269));
#220=CARTESIAN_POINT('Ctrl Pts',(19.2116744496299,38.0686326296918,38.5422463364853));
#221=CARTESIAN_POINT('Ctrl Pts',(14.0686313291726,40.2539774345165,36.2538682198963));
#222=CARTESIAN_POINT('Ctrl Pts',(11.3592447832644,41.1047928207927,35.2622639109171));
#223=CARTESIAN_POINT('Ctrl Pts',(5.77200710289064,42.2530514940233,33.8778821056116));
#224=CARTESIAN_POINT('Ctrl Pts',(2.8923261592308,42.55,33.4920886180602));
#225=CARTESIAN_POINT('Ctrl Pts',(-2.8923261592308,42.55,33.4920886180602));
#226=CARTESIAN_POINT('Ctrl Pts',(-5.77200710289064,42.2530514940233,33.8778821056116));
#227=CARTESIAN_POINT('Ctrl Pts',(-11.3592447832644,41.1047928207927,35.2622639109171));
#228=CARTESIAN_POINT('Ctrl Pts',(-14.0686313291727,40.2539774345165,36.2538682198963));
#229=CARTESIAN_POINT('Ctrl Pts',(-19.2116744496299,38.0686326296918,38.5422463364853));
#230=CARTESIAN_POINT('Ctrl Pts',(-21.6495575779627,36.7320219310959,39.8377881293269));
#231=CARTESIAN_POINT('Ctrl Pts',(-26.1630974573054,33.6665577312698,42.4600246090537));
#232=CARTESIAN_POINT('Ctrl Pts',(-28.238271725736,31.9365153532392,43.7861597564984));
#233=CARTESIAN_POINT('Ctrl Pts',(-31.8851034185259,28.2896836604493,46.2232773932007));
#234=CARTESIAN_POINT('Ctrl Pts',(-33.602917535314,26.2449220762749,47.4315176321679));
#235=CARTESIAN_POINT('Ctrl Pts',(-36.6806989645355,21.7365665594697,49.6595053735555));
#236=CARTESIAN_POINT('Ctrl Pts',(-38.0407433588699,19.2725915867617,50.6783752518845));
#237=CARTESIAN_POINT('Ctrl Pts',(-40.2602985605878,14.058427514483,52.3649805051588));
#238=CARTESIAN_POINT('Ctrl Pts',(-41.1217108553147,11.3022219724776,53.0338244602795));
#239=CARTESIAN_POINT('Ctrl Pts',(-42.2668154633834,5.6790523729827,53.9265715823877));
#240=CARTESIAN_POINT('Ctrl Pts',(-42.55,2.81190956224842,54.15));
#241=CARTESIAN_POINT('Ctrl Pts',(-42.55,5.55111512312578E-15,54.15));
#242=CARTESIAN_POINT('Ctrl Pts',(-42.55,8.32667268468867E-15,54.15));
#243=CARTESIAN_POINT('Ctrl Pts',(-42.55,-2.81190956224841,54.15));
#244=CARTESIAN_POINT('Ctrl Pts',(-42.2668154633834,-5.67905237298269,53.9265715823877));
#245=CARTESIAN_POINT('Ctrl Pts',(-41.1217108553147,-11.3022219724776,53.0338244602795));
#246=CARTESIAN_POINT('Ctrl Pts',(-40.2602985605878,-14.058427514483,52.3649805051588));
#247=CARTESIAN_POINT('Ctrl Pts',(-38.0407433588699,-19.2725915867617,50.6783752518845));
#248=CARTESIAN_POINT('Ctrl Pts',(-36.6806989645355,-21.7365665594697,49.6595053735555));
#249=CARTESIAN_POINT('Ctrl Pts',(-33.602917535314,-26.2449220762749,47.4315176321679));
#250=CARTESIAN_POINT('Ctrl Pts',(-31.8851034185259,-28.2896836604493,46.2232773932007));
#251=CARTESIAN_POINT('Ctrl Pts',(-28.238271725736,-31.9365153532392,43.7861597564984));
#252=CARTESIAN_POINT('Ctrl Pts',(-26.1630974573054,-33.6665577312698,42.4600246090537));
#253=CARTESIAN_POINT('Ctrl Pts',(-21.6495575779627,-36.7320219310959,39.8377881293269));
#254=CARTESIAN_POINT('Ctrl Pts',(-19.2116744496299,-38.0686326296918,38.5422463364853));
#255=CARTESIAN_POINT('Ctrl Pts',(-14.0686313291726,-40.2539774345165,36.2538682198963));
#256=CARTESIAN_POINT('Ctrl Pts',(-11.3592447832644,-41.1047928207927,35.2622639109171));
#257=CARTESIAN_POINT('Ctrl Pts',(-5.77200710289063,-42.2530514940233,33.8778821056116));
#258=CARTESIAN_POINT('Ctrl Pts',(-2.8923261592308,-42.55,33.4920886180602));
#259=CARTESIAN_POINT('Ctrl Pts',(-5.55111512312578E-16,-42.55,33.4920886180602));
#260=CARTESIAN_POINT('',(-42.55,5.21087213037199E-15,120.));
#261=CARTESIAN_POINT('',(-42.55,-5.21087213037199E-15,0.));
#262=CARTESIAN_POINT('Origin',(0.,0.,120.));
#263=CARTESIAN_POINT('Origin',(0.,0.,0.));
#264=CARTESIAN_POINT('',(-120.,-54.15,-6.63146241738292E-15));
#265=CARTESIAN_POINT('Origin',(-120.,0.,0.));
#266=CARTESIAN_POINT('',(120.,-54.15,6.63146241738292E-15));
#267=CARTESIAN_POINT('',(0.,-54.15,-6.63146241738292E-15));
#268=CARTESIAN_POINT('Origin',(120.,0.,0.));
#269=CARTESIAN_POINT('Origin',(0.,0.,0.));
#270=CARTESIAN_POINT('',(-44.55,-5.45580149020146E-15,120.));
#271=CARTESIAN_POINT('Origin',(0.,0.,120.));
#272=CARTESIAN_POINT('',(-44.55,-4.94834679435104E-15,57.15));
#273=CARTESIAN_POINT('',(-44.55,-5.45580149020146E-15,0.));
#274=CARTESIAN_POINT('',(-5.55111512312578E-16,-44.55,35.7969272424324));
#275=CARTESIAN_POINT('Ctrl Pts',(-5.55111512312578E-16,-44.55,35.7969272424324));
#276=CARTESIAN_POINT('Ctrl Pts',(-3.02125350713019,-44.55,35.7969272424324));
#277=CARTESIAN_POINT('Ctrl Pts',(-6.0341208664178,-44.2403396985775,36.1908787252177));
#278=CARTESIAN_POINT('Ctrl Pts',(-11.8839781914122,-43.0393929210507,37.6111420726319));
#279=CARTESIAN_POINT('Ctrl Pts',(-14.7227838207254,-42.1486712551101,38.63044378976));
#280=CARTESIAN_POINT('Ctrl Pts',(-20.1112182097561,-39.8598789243774,40.9879441458227));
#281=CARTESIAN_POINT('Ctrl Pts',(-22.6654692810712,-38.4596391234064,42.324822455347));
#282=CARTESIAN_POINT('Ctrl Pts',(-27.3931041615093,-35.2489032912539,45.0338678685483));
#283=CARTESIAN_POINT('Ctrl Pts',(-29.566032854302,-33.4371813494194,46.4053760731725));
#284=CARTESIAN_POINT('Ctrl Pts',(-33.3859405939924,-29.617273609729,48.9289277283847));
#285=CARTESIAN_POINT('Ctrl Pts',(-35.1856545291559,-27.4744716974467,50.1815436965883));
#286=CARTESIAN_POINT('Ctrl Pts',(-38.4090014666219,-22.7513842819503,52.4919844941624));
#287=CARTESIAN_POINT('Ctrl Pts',(-39.8327231486909,-20.1707036117286,53.5488776779474));
#288=CARTESIAN_POINT('Ctrl Pts',(-42.1555082113167,-14.7110956316892,55.2984928991228));
#289=CARTESIAN_POINT('Ctrl Pts',(-43.0565558963106,-11.8258943374689,55.9923465047012));
#290=CARTESIAN_POINT('Ctrl Pts',(-44.2540665959642,-5.94107501612285,56.9183474086237));
#291=CARTESIAN_POINT('Ctrl Pts',(-44.55,-2.94127139730566,57.15));
#292=CARTESIAN_POINT('Ctrl Pts',(-44.55,-4.9960036108132E-15,57.15));
#293=CARTESIAN_POINT('Ctrl Pts',(-44.55,-2.77555756156289E-15,57.15));
#294=CARTESIAN_POINT('Ctrl Pts',(-44.55,2.94127139730565,57.15));
#295=CARTESIAN_POINT('Ctrl Pts',(-44.2540665959642,5.94107501612284,56.9183474086237));
#296=CARTESIAN_POINT('Ctrl Pts',(-43.0565558963106,11.8258943374689,55.9923465047012));
#297=CARTESIAN_POINT('Ctrl Pts',(-42.1555082113167,14.7110956316892,55.2984928991228));
#298=CARTESIAN_POINT('Ctrl Pts',(-39.8327231486909,20.1707036117285,53.5488776779474));
#299=CARTESIAN_POINT('Ctrl Pts',(-38.4090014666219,22.7513842819503,52.4919844941624));
#300=CARTESIAN_POINT('Ctrl Pts',(-35.1856545291559,27.4744716974467,50.1815436965882));
#301=CARTESIAN_POINT('Ctrl Pts',(-33.3859405939924,29.617273609729,48.9289277283847));
#302=CARTESIAN_POINT('Ctrl Pts',(-29.566032854302,33.4371813494194,46.4053760731725));
#303=CARTESIAN_POINT('Ctrl Pts',(-27.3931041615093,35.2489032912539,45.0338678685483));
#304=CARTESIAN_POINT('Ctrl Pts',(-22.6654692810712,38.4596391234064,42.324822455347));
#305=CARTESIAN_POINT('Ctrl Pts',(-20.1112182097561,39.8598789243774,40.9879441458227));
#306=CARTESIAN_POINT('Ctrl Pts',(-14.7227838207254,42.14867125511,38.63044378976));
#307=CARTESIAN_POINT('Ctrl Pts',(-11.8839781914122,43.0393929210507,37.6111420726319));
#308=CARTESIAN_POINT('Ctrl Pts',(-6.03412086641781,44.2403396985775,36.1908787252177));
#309=CARTESIAN_POINT('Ctrl Pts',(-3.02125350713019,44.55,35.7969272424324));
#310=CARTESIAN_POINT('Ctrl Pts',(3.02125350713019,44.55,35.7969272424324));
#311=CARTESIAN_POINT('Ctrl Pts',(6.03412086641781,44.2403396985775,36.1908787252177));
#312=CARTESIAN_POINT('Ctrl Pts',(11.8839781914122,43.0393929210507,37.6111420726319));
#313=CARTESIAN_POINT('Ctrl Pts',(14.7227838207254,42.1486712551101,38.6304437897601));
#314=CARTESIAN_POINT('Ctrl Pts',(20.1112182097561,39.8598789243774,40.9879441458227));
#315=CARTESIAN_POINT('Ctrl Pts',(22.6654692810712,38.4596391234064,42.324822455347));
#316=CARTESIAN_POINT('Ctrl Pts',(27.3931041615093,35.2489032912539,45.0338678685483));
#317=CARTESIAN_POINT('Ctrl Pts',(29.566032854302,33.4371813494194,46.4053760731725));
#318=CARTESIAN_POINT('Ctrl Pts',(33.3859405939924,29.617273609729,48.9289277283847));
#319=CARTESIAN_POINT('Ctrl Pts',(35.1856545291558,27.4744716974468,50.1815436965882));
#320=CARTESIAN_POINT('Ctrl Pts',(38.4090014666219,22.7513842819503,52.4919844941624));
#321=CARTESIAN_POINT('Ctrl Pts',(39.8327231486909,20.1707036117286,53.5488776779473));
#322=CARTESIAN_POINT('Ctrl Pts',(42.1555082113167,14.7110956316893,55.2984928991228));
#323=CARTESIAN_POINT('Ctrl Pts',(43.0565558963106,11.8258943374689,55.9923465047012));
#324=CARTESIAN_POINT('Ctrl Pts',(44.2540665959642,5.94107501612285,56.9183474086237));
#325=CARTESIAN_POINT('Ctrl Pts',(44.55,2.94127139730566,57.15));
#326=CARTESIAN_POINT('Ctrl Pts',(44.55,-2.94127139730564,57.15));
#327=CARTESIAN_POINT('Ctrl Pts',(44.2540665959642,-5.94107501612282,56.9183474086237));
#328=CARTESIAN_POINT('Ctrl Pts',(43.0565558963106,-11.8258943374689,55.9923465047012));
#329=CARTESIAN_POINT('Ctrl Pts',(42.1555082113167,-14.7110956316892,55.2984928991228));
#330=CARTESIAN_POINT('Ctrl Pts',(39.8327231486909,-20.1707036117286,53.5488776779474));
#331=CARTESIAN_POINT('Ctrl Pts',(38.4090014666219,-22.7513842819503,52.4919844941624));
#332=CARTESIAN_POINT('Ctrl Pts',(35.1856545291559,-27.4744716974467,50.1815436965882));
#333=CARTESIAN_POINT('Ctrl Pts',(33.3859405939924,-29.617273609729,48.9289277283847));
#334=CARTESIAN_POINT('Ctrl Pts',(29.566032854302,-33.4371813494194,46.4053760731725));
#335=CARTESIAN_POINT('Ctrl Pts',(27.3931041615093,-35.2489032912539,45.0338678685483));
#336=CARTESIAN_POINT('Ctrl Pts',(22.6654692810712,-38.4596391234064,42.324822455347));
#337=CARTESIAN_POINT('Ctrl Pts',(20.1112182097561,-39.8598789243774,40.9879441458228));
#338=CARTESIAN_POINT('Ctrl Pts',(14.7227838207254,-42.14867125511,38.6304437897601));
#339=CARTESIAN_POINT('Ctrl Pts',(11.8839781914122,-43.0393929210507,37.6111420726319));
#340=CARTESIAN_POINT('Ctrl Pts',(6.03412086641781,-44.2403396985775,36.1908787252177));
#341=CARTESIAN_POINT('Ctrl Pts',(3.0212535071302,-44.55,35.7969272424324));
#342=CARTESIAN_POINT('Ctrl Pts',(5.55111512312578E-16,-44.55,35.7969272424324));
#343=CARTESIAN_POINT('Origin',(0.,0.,120.));
#344=CARTESIAN_POINT('Origin',(-120.,0.,0.));
#345=CARTESIAN_POINT('',(-120.,-57.15,-6.99885645712712E-15));
#346=CARTESIAN_POINT('Origin',(-120.,0.,0.));
#347=CARTESIAN_POINT('Origin',(0.,0.,0.));
#348=CARTESIAN_POINT('',(120.,-57.15,-6.99885645712712E-15));
#349=CARTESIAN_POINT('Origin',(120.,0.,0.));
#350=CARTESIAN_POINT('',(0.,-57.15,-6.99885645712712E-15));
#351=CARTESIAN_POINT('Origin',(120.,0.,0.));
#352=UNCERTAINTY_MEASURE_WITH_UNIT(LENGTH_MEASURE(0.01),#356,
'DISTANCE_ACCURACY_VALUE',
'Maximum model space distance between geometric entities at asserted c
onnectivities');
#353=UNCERTAINTY_MEASURE_WITH_UNIT(LENGTH_MEASURE(0.01),#356,
'DISTANCE_ACCURACY_VALUE',
'Maximum model space distance between geometric entities at asserted c
onnectivities');
#354=(
GEOMETRIC_REPRESENTATION_CONTEXT(3)
GLOBAL_UNCERTAINTY_ASSIGNED_CONTEXT((#352))
GLOBAL_UNIT_ASSIGNED_CONTEXT((#356,#358,#359))
REPRESENTATION_CONTEXT('','3D')
);
#355=(
GEOMETRIC_REPRESENTATION_CONTEXT(3)
GLOBAL_UNCERTAINTY_ASSIGNED_CONTEXT((#353))
GLOBAL_UNIT_ASSIGNED_CONTEXT((#356,#358,#359))
REPRESENTATION_CONTEXT('','3D')
);
#356=(
LENGTH_UNIT()
NAMED_UNIT(*)
SI_UNIT(.MILLI.,.METRE.)
);
#357=(
LENGTH_UNIT()
NAMED_UNIT(*)
SI_UNIT(.CENTI.,.METRE.)
);
#358=(
NAMED_UNIT(*)
PLANE_ANGLE_UNIT()
SI_UNIT($,.RADIAN.)
);
#359=(
NAMED_UNIT(*)
SI_UNIT($,.STERADIAN.)
SOLID_ANGLE_UNIT()
);
#360=SHAPE_DEFINITION_REPRESENTATION(#361,#362);
#361=PRODUCT_DEFINITION_SHAPE('',$,#364);
#362=SHAPE_REPRESENTATION('',(#142),#354);
#363=PRODUCT_DEFINITION_CONTEXT('part definition',#368,'design');
#364=PRODUCT_DEFINITION('D8(R) 45\X\D735','D8(R) 45\X\D735',#365,#363);
#365=PRODUCT_DEFINITION_FORMATION('',$,#370);
#366=PRODUCT_RELATED_PRODUCT_CATEGORY('D8(R) 45\X\D735','D8(R) 45\X\D7
35',(#370));
#367=APPLICATION_PROTOCOL_DEFINITION('international standard',
'automotive_design',2009,#368);
#368=APPLICATION_CONTEXT(
'Core Data for Automotive Mechanical Design Process');
#369=PRODUCT_CONTEXT('part definition',#368,'mechanical');
#370=PRODUCT('D8(R) 45\X\D735','D8(R) 45\X\D735',$,(#369));
#371=PRESENTATION_STYLE_ASSIGNMENT((#372));
#372=SURFACE_STYLE_USAGE(.BOTH.,#375);
#373=SURFACE_STYLE_RENDERING_WITH_PROPERTIES($,#379,(#374));
#374=SURFACE_STYLE_TRANSPARENT(0.);
#375=SURFACE_SIDE_STYLE('',(#376,#373));
#376=SURFACE_STYLE_FILL_AREA(#377);
#377=FILL_AREA_STYLE('',(#378));
#378=FILL_AREA_STYLE_COLOUR('',#379);
#379=COLOUR_RGB('',0.749019607843137,0.749019607843137,0.749019607843137);
ENDSEC;
END-ISO-10303-21;
