ISO-10303-21;
HEADER;
/* Generated by software containing ST-Developer
 * from STEP Tools, Inc. (www.steptools.com) 
 */

FILE_DESCRIPTION(
/* description */ (''),
/* implementation_level */ '2;1');

FILE_NAME(
/* name */ 
'\\\\Tske00\\w\\Work\\TOSTE\\\X2\7D99624B\X0\\\02_\X2\6EB663A5\X0\\\\X2\6EB663A5752830C130FC30BA\X0\\\
D8(R)\\D8(R) 45\X\D725.stp',
/* time_stamp */ '2022-04-12T17:50:39+09:00',
/* author */ ('3dcad-eng'),
/* organization */ (''),
/* preprocessor_version */ 'ST-DEVELOPER v18.1',
/* originating_system */ 'Autodesk Inventor 2022',
/* authorisation */ '');

FILE_SCHEMA (('AUTOMOTIVE_DESIGN { 1 0 10303 214 3 1 1 }'));
ENDSEC;

DATA;
#10=MECHANICAL_DESIGN_GEOMETRIC_PRESENTATION_REPRESENTATION('',(#13),#355);
#11=SHAPE_REPRESENTATION_RELATIONSHIP('SRR','None',#362,#12);
#12=ADVANCED_BREP_SHAPE_REPRESENTATION('',(#14),#354);
#13=STYLED_ITEM('',(#371),#14);
#14=MANIFOLD_SOLID_BREP('\X2\30BD30EA30C330C9\X0\1',#123);
#15=PLANE('',#150);
#16=PLANE('',#151);
#17=PLANE('',#155);
#18=FACE_BOUND('',#32,.T.);
#19=FACE_BOUND('',#35,.T.);
#20=FACE_BOUND('',#37,.T.);
#21=FACE_BOUND('',#39,.T.);
#22=FACE_BOUND('',#41,.T.);
#23=FACE_OUTER_BOUND('',#30,.T.);
#24=FACE_OUTER_BOUND('',#31,.T.);
#25=FACE_OUTER_BOUND('',#33,.T.);
#26=FACE_OUTER_BOUND('',#34,.T.);
#27=FACE_OUTER_BOUND('',#36,.T.);
#28=FACE_OUTER_BOUND('',#38,.T.);
#29=FACE_OUTER_BOUND('',#40,.T.);
#30=EDGE_LOOP('',(#84,#85,#86,#87,#88));
#31=EDGE_LOOP('',(#89,#90,#91,#92));
#32=EDGE_LOOP('',(#93,#94));
#33=EDGE_LOOP('',(#95,#96,#97,#98,#99));
#34=EDGE_LOOP('',(#100));
#35=EDGE_LOOP('',(#101));
#36=EDGE_LOOP('',(#102));
#37=EDGE_LOOP('',(#103));
#38=EDGE_LOOP('',(#104,#105,#106,#107));
#39=EDGE_LOOP('',(#108,#109));
#40=EDGE_LOOP('',(#110));
#41=EDGE_LOOP('',(#111));
#42=CIRCLE('',#144,29.75);
#43=CIRCLE('',#146,54.15);
#44=CIRCLE('',#147,54.15);
#45=CIRCLE('',#149,31.75);
#46=CIRCLE('',#152,57.15);
#47=CIRCLE('',#154,57.15);
#48=LINE('',#261,#52);
#49=LINE('',#267,#53);
#50=LINE('',#273,#54);
#51=LINE('',#350,#55);
#52=VECTOR('',#160,29.75);
#53=VECTOR('',#167,54.15);
#54=VECTOR('',#174,31.75);
#55=VECTOR('',#185,57.15);
#56=B_SPLINE_CURVE_WITH_KNOTS('',3,(#192,#193,#194,#195,#196,#197,#198,
#199,#200,#201,#202,#203,#204,#205,#206,#207,#208,#209,#210,#211,#212,#213,
#214,#215,#216,#217,#218,#219,#220,#221,#222,#223,#224,#225,#226,#227,#228,
#229,#230,#231,#232,#233,#234,#235,#236,#237,#238,#239,#240,#241),
 .UNSPECIFIED.,.F.,.F.,(4,2,2,2,2,2,2,2,2,2,2,2,2,2,2,2,2,2,2,2,2,2,2,2,
4),(0.,0.57583339078468,1.15166678156936,1.72750017235404,2.30333356313872,
2.876735778899,3.45013799465927,4.02354021041955,4.59694242617982,5.1703446419401,
5.74374685770037,6.31714907346064,6.89055128922092,7.4663846800056,8.04221807079028,
8.61805146157496,9.19388485235964,9.76971824314432,10.345551633929,10.9213850247137,
11.4972184154984,12.0706206312586,12.6440228470189,13.2174250627792,13.7908272785395),
 .UNSPECIFIED.);
#57=B_SPLINE_CURVE_WITH_KNOTS('',3,(#242,#243,#244,#245,#246,#247,#248,
#249,#250,#251,#252,#253,#254,#255,#256,#257,#258,#259),.UNSPECIFIED.,.F.,
 .F.,(4,2,2,2,2,2,2,2,4),(13.7908272785395,14.3642294942997,14.93763171006,
15.5110339258203,16.0844361415806,16.6602695323652,17.2361029231499,17.8119363139346,
18.3877697047193),.UNSPECIFIED.);
#58=B_SPLINE_CURVE_WITH_KNOTS('',3,(#275,#276,#277,#278,#279,#280,#281,
#282,#283,#284,#285,#286,#287,#288,#289,#290,#291,#292),.UNSPECIFIED.,.F.,
 .F.,(4,2,2,2,2,2,2,2,4),(0.,0.615029575262637,1.23005915052527,1.84508872578791,
2.46011830105055,3.07241058871239,3.68470287637423,4.29699516403608,4.90928745169792),
 .UNSPECIFIED.);
#59=B_SPLINE_CURVE_WITH_KNOTS('',3,(#293,#294,#295,#296,#297,#298,#299,
#300,#301,#302,#303,#304,#305,#306,#307,#308,#309,#310,#311,#312,#313,#314,
#315,#316,#317,#318,#319,#320,#321,#322,#323,#324,#325,#326,#327,#328,#329,
#330,#331,#332,#333,#334,#335,#336,#337,#338,#339,#340,#341,#342),
 .UNSPECIFIED.,.F.,.F.,(4,2,2,2,2,2,2,2,2,2,2,2,2,2,2,2,2,2,2,2,2,2,2,2,
4),(4.90928745169792,5.52157973935976,6.1338720270216,6.74616431468345,
7.35845660234529,7.97348617760793,8.58851575287056,9.2035453281332,9.81857490339584,
10.4336044786585,11.0486340539211,11.6636636291837,12.2786932044464,12.8909854921082,
13.5032777797701,14.1155700674319,14.7278623550938,15.3401546427556,15.9524469304174,
16.5647392180793,17.1770315057411,17.7920610810038,18.4070906562664,19.022120231529,
19.6371498067917),.UNSPECIFIED.);
#60=VERTEX_POINT('',#190);
#61=VERTEX_POINT('',#191);
#62=VERTEX_POINT('',#260);
#63=VERTEX_POINT('',#264);
#64=VERTEX_POINT('',#266);
#65=VERTEX_POINT('',#270);
#66=VERTEX_POINT('',#272);
#67=VERTEX_POINT('',#274);
#68=VERTEX_POINT('',#345);
#69=VERTEX_POINT('',#348);
#70=EDGE_CURVE('',#60,#61,#56,.T.);
#71=EDGE_CURVE('',#61,#60,#57,.T.);
#72=EDGE_CURVE('',#61,#62,#48,.T.);
#73=EDGE_CURVE('',#62,#62,#42,.T.);
#74=EDGE_CURVE('',#63,#63,#43,.T.);
#75=EDGE_CURVE('',#63,#64,#49,.T.);
#76=EDGE_CURVE('',#64,#64,#44,.T.);
#77=EDGE_CURVE('',#65,#65,#45,.T.);
#78=EDGE_CURVE('',#65,#66,#50,.T.);
#79=EDGE_CURVE('',#67,#66,#58,.T.);
#80=EDGE_CURVE('',#66,#67,#59,.T.);
#81=EDGE_CURVE('',#68,#68,#46,.T.);
#82=EDGE_CURVE('',#69,#69,#47,.T.);
#83=EDGE_CURVE('',#69,#68,#51,.T.);
#84=ORIENTED_EDGE('',*,*,#70,.F.);
#85=ORIENTED_EDGE('',*,*,#71,.F.);
#86=ORIENTED_EDGE('',*,*,#72,.T.);
#87=ORIENTED_EDGE('',*,*,#73,.F.);
#88=ORIENTED_EDGE('',*,*,#72,.F.);
#89=ORIENTED_EDGE('',*,*,#74,.F.);
#90=ORIENTED_EDGE('',*,*,#75,.T.);
#91=ORIENTED_EDGE('',*,*,#76,.F.);
#92=ORIENTED_EDGE('',*,*,#75,.F.);
#93=ORIENTED_EDGE('',*,*,#70,.T.);
#94=ORIENTED_EDGE('',*,*,#71,.T.);
#95=ORIENTED_EDGE('',*,*,#77,.F.);
#96=ORIENTED_EDGE('',*,*,#78,.T.);
#97=ORIENTED_EDGE('',*,*,#79,.F.);
#98=ORIENTED_EDGE('',*,*,#80,.F.);
#99=ORIENTED_EDGE('',*,*,#78,.F.);
#100=ORIENTED_EDGE('',*,*,#77,.T.);
#101=ORIENTED_EDGE('',*,*,#73,.T.);
#102=ORIENTED_EDGE('',*,*,#81,.T.);
#103=ORIENTED_EDGE('',*,*,#74,.T.);
#104=ORIENTED_EDGE('',*,*,#82,.F.);
#105=ORIENTED_EDGE('',*,*,#83,.T.);
#106=ORIENTED_EDGE('',*,*,#81,.F.);
#107=ORIENTED_EDGE('',*,*,#83,.F.);
#108=ORIENTED_EDGE('',*,*,#79,.T.);
#109=ORIENTED_EDGE('',*,*,#80,.T.);
#110=ORIENTED_EDGE('',*,*,#82,.T.);
#111=ORIENTED_EDGE('',*,*,#76,.T.);
#112=CYLINDRICAL_SURFACE('',#143,29.75);
#113=CYLINDRICAL_SURFACE('',#145,54.15);
#114=CYLINDRICAL_SURFACE('',#148,31.75);
#115=CYLINDRICAL_SURFACE('',#153,57.15);
#116=ADVANCED_FACE('',(#23),#112,.F.);
#117=ADVANCED_FACE('',(#24,#18),#113,.F.);
#118=ADVANCED_FACE('',(#25),#114,.T.);
#119=ADVANCED_FACE('',(#26,#19),#15,.T.);
#120=ADVANCED_FACE('',(#27,#20),#16,.F.);
#121=ADVANCED_FACE('',(#28,#21),#115,.T.);
#122=ADVANCED_FACE('',(#29,#22),#17,.T.);
#123=CLOSED_SHELL('',(#116,#117,#118,#119,#120,#121,#122));
#124=DERIVED_UNIT_ELEMENT(#126,1.);
#125=DERIVED_UNIT_ELEMENT(#357,-3.);
#126=(
MASS_UNIT()
NAMED_UNIT(*)
SI_UNIT($,.GRAM.)
);
#127=DERIVED_UNIT((#124,#125));
#128=MEASURE_REPRESENTATION_ITEM('density measure',
POSITIVE_RATIO_MEASURE(1.),#127);
#129=PROPERTY_DEFINITION_REPRESENTATION(#134,#131);
#130=PROPERTY_DEFINITION_REPRESENTATION(#135,#132);
#131=REPRESENTATION('material name',(#133),#354);
#132=REPRESENTATION('density',(#128),#354);
#133=DESCRIPTIVE_REPRESENTATION_ITEM('\X2\4E00822C\X0\','\X2\4E00822C\X0\');
#134=PROPERTY_DEFINITION('material property','material name',#364);
#135=PROPERTY_DEFINITION('material property','density of part',#364);
#136=DATE_TIME_ROLE('creation_date');
#137=APPLIED_DATE_AND_TIME_ASSIGNMENT(#138,#136,(#364));
#138=DATE_AND_TIME(#139,#140);
#139=CALENDAR_DATE(2022,31,3);
#140=LOCAL_TIME(0,0,0.,#141);
#141=COORDINATED_UNIVERSAL_TIME_OFFSET(0,0,.BEHIND.);
#142=AXIS2_PLACEMENT_3D('placement',#188,#156,#157);
#143=AXIS2_PLACEMENT_3D('',#189,#158,#159);
#144=AXIS2_PLACEMENT_3D('',#262,#161,#162);
#145=AXIS2_PLACEMENT_3D('',#263,#163,#164);
#146=AXIS2_PLACEMENT_3D('',#265,#165,#166);
#147=AXIS2_PLACEMENT_3D('',#268,#168,#169);
#148=AXIS2_PLACEMENT_3D('',#269,#170,#171);
#149=AXIS2_PLACEMENT_3D('',#271,#172,#173);
#150=AXIS2_PLACEMENT_3D('',#343,#175,#176);
#151=AXIS2_PLACEMENT_3D('',#344,#177,#178);
#152=AXIS2_PLACEMENT_3D('',#346,#179,#180);
#153=AXIS2_PLACEMENT_3D('',#347,#181,#182);
#154=AXIS2_PLACEMENT_3D('',#349,#183,#184);
#155=AXIS2_PLACEMENT_3D('',#351,#186,#187);
#156=DIRECTION('axis',(0.,0.,1.));
#157=DIRECTION('refdir',(1.,0.,0.));
#158=DIRECTION('center_axis',(0.,0.,1.));
#159=DIRECTION('ref_axis',(1.,0.,0.));
#160=DIRECTION('',(0.,0.,1.));
#161=DIRECTION('center_axis',(0.,0.,-1.));
#162=DIRECTION('ref_axis',(1.,0.,0.));
#163=DIRECTION('center_axis',(1.,0.,0.));
#164=DIRECTION('ref_axis',(0.,1.,0.));
#165=DIRECTION('center_axis',(1.,0.,0.));
#166=DIRECTION('ref_axis',(0.,1.,0.));
#167=DIRECTION('',(1.,0.,0.));
#168=DIRECTION('center_axis',(-1.,0.,0.));
#169=DIRECTION('ref_axis',(0.,1.,0.));
#170=DIRECTION('center_axis',(0.,0.,1.));
#171=DIRECTION('ref_axis',(1.,0.,0.));
#172=DIRECTION('center_axis',(0.,0.,1.));
#173=DIRECTION('ref_axis',(1.,0.,0.));
#174=DIRECTION('',(0.,0.,-1.));
#175=DIRECTION('center_axis',(0.,0.,1.));
#176=DIRECTION('ref_axis',(1.,0.,0.));
#177=DIRECTION('center_axis',(1.,0.,0.));
#178=DIRECTION('ref_axis',(0.,0.,-1.));
#179=DIRECTION('center_axis',(-1.,0.,0.));
#180=DIRECTION('ref_axis',(0.,1.,0.));
#181=DIRECTION('center_axis',(1.,0.,0.));
#182=DIRECTION('ref_axis',(0.,1.,0.));
#183=DIRECTION('center_axis',(1.,0.,0.));
#184=DIRECTION('ref_axis',(0.,1.,0.));
#185=DIRECTION('',(-1.,0.,0.));
#186=DIRECTION('center_axis',(1.,0.,0.));
#187=DIRECTION('ref_axis',(0.,0.,-1.));
#188=CARTESIAN_POINT('',(0.,0.,0.));
#189=CARTESIAN_POINT('Origin',(0.,0.,0.));
#190=CARTESIAN_POINT('',(-5.55111512312578E-16,-29.75,45.2455522675986));
#191=CARTESIAN_POINT('',(-29.75,-1.56327576793953E-16,54.15));
#192=CARTESIAN_POINT('Ctrl Pts',(-5.55111512312578E-16,-29.75,45.2455522675986));
#193=CARTESIAN_POINT('Ctrl Pts',(1.91944463594893,-29.75,45.2455522675986));
#194=CARTESIAN_POINT('Ctrl Pts',(3.88574545188351,-29.5613796285545,45.3713417001636));
#195=CARTESIAN_POINT('Ctrl Pts',(7.76477032444081,-28.7868464125653,45.8666685688815));
#196=CARTESIAN_POINT('Ctrl Pts',(9.67769215655975,-28.2012932666606,46.2352190543993));
#197=CARTESIAN_POINT('Ctrl Pts',(13.3241681737532,-26.6727845966448,47.1335422025794));
#198=CARTESIAN_POINT('Ctrl Pts',(15.0613878553296,-25.7286021687434,47.6628061770763));
#199=CARTESIAN_POINT('Ctrl Pts',(18.2671294298199,-23.560949823271,48.770746409285));
#200=CARTESIAN_POINT('Ctrl Pts',(19.7357420330143,-22.3371114475852,49.3484390754243));
#201=CARTESIAN_POINT('Ctrl Pts',(22.3316199421853,-19.7412335384143,50.4428577332456));
#202=CARTESIAN_POINT('Ctrl Pts',(23.5546192130643,-18.2753965018912,51.0007089612133));
#203=CARTESIAN_POINT('Ctrl Pts',(25.7243938489776,-15.0687015010704,52.0384152992777));
#204=CARTESIAN_POINT('Ctrl Pts',(26.6713333774777,-13.3277156075323,52.5175316887867));
#205=CARTESIAN_POINT('Ctrl Pts',(28.2031522399201,-9.6731719454741,53.3118081550107));
#206=CARTESIAN_POINT('Ctrl Pts',(28.7892616762648,-7.75601756508592,53.6271938870018));
#207=CARTESIAN_POINT('Ctrl Pts',(29.5628256407691,-3.87514341502481,54.0464152020167));
#208=CARTESIAN_POINT('Ctrl Pts',(29.75,-1.91134071920092,54.15));
#209=CARTESIAN_POINT('Ctrl Pts',(29.75,1.91134071920092,54.15));
#210=CARTESIAN_POINT('Ctrl Pts',(29.5628256407691,3.87514341502481,54.0464152020167));
#211=CARTESIAN_POINT('Ctrl Pts',(28.7892616762648,7.75601756508592,53.6271938870018));
#212=CARTESIAN_POINT('Ctrl Pts',(28.2031522399201,9.6731719454741,53.3118081550107));
#213=CARTESIAN_POINT('Ctrl Pts',(26.6713333774777,13.3277156075323,52.5175316887867));
#214=CARTESIAN_POINT('Ctrl Pts',(25.7243938489776,15.0687015010703,52.0384152992777));
#215=CARTESIAN_POINT('Ctrl Pts',(23.5546192130643,18.2753965018912,51.0007089612133));
#216=CARTESIAN_POINT('Ctrl Pts',(22.3316199421853,19.7412335384143,50.4428577332456));
#217=CARTESIAN_POINT('Ctrl Pts',(19.7357420330143,22.3371114475852,49.3484390754243));
#218=CARTESIAN_POINT('Ctrl Pts',(18.2671294298199,23.560949823271,48.770746409285));
#219=CARTESIAN_POINT('Ctrl Pts',(15.0613878553296,25.7286021687434,47.6628061770763));
#220=CARTESIAN_POINT('Ctrl Pts',(13.3241681737532,26.6727845966448,47.1335422025794));
#221=CARTESIAN_POINT('Ctrl Pts',(9.67769215655975,28.2012932666606,46.2352190543993));
#222=CARTESIAN_POINT('Ctrl Pts',(7.76477032444081,28.7868464125653,45.8666685688815));
#223=CARTESIAN_POINT('Ctrl Pts',(3.88574545188351,29.5613796285545,45.3713417001636));
#224=CARTESIAN_POINT('Ctrl Pts',(1.91944463594893,29.75,45.2455522675986));
#225=CARTESIAN_POINT('Ctrl Pts',(-1.91944463594893,29.75,45.2455522675986));
#226=CARTESIAN_POINT('Ctrl Pts',(-3.88574545188352,29.5613796285545,45.3713417001636));
#227=CARTESIAN_POINT('Ctrl Pts',(-7.76477032444081,28.7868464125653,45.8666685688815));
#228=CARTESIAN_POINT('Ctrl Pts',(-9.67769215655974,28.2012932666606,46.2352190543993));
#229=CARTESIAN_POINT('Ctrl Pts',(-13.3241681737532,26.6727845966448,47.1335422025794));
#230=CARTESIAN_POINT('Ctrl Pts',(-15.0613878553296,25.7286021687434,47.6628061770763));
#231=CARTESIAN_POINT('Ctrl Pts',(-18.2671294298199,23.560949823271,48.7707464092849));
#232=CARTESIAN_POINT('Ctrl Pts',(-19.7357420330143,22.3371114475852,49.3484390754243));
#233=CARTESIAN_POINT('Ctrl Pts',(-22.3316199421853,19.7412335384143,50.4428577332456));
#234=CARTESIAN_POINT('Ctrl Pts',(-23.5546192130643,18.2753965018912,51.0007089612133));
#235=CARTESIAN_POINT('Ctrl Pts',(-25.7243938489776,15.0687015010703,52.0384152992777));
#236=CARTESIAN_POINT('Ctrl Pts',(-26.6713333774777,13.3277156075323,52.5175316887867));
#237=CARTESIAN_POINT('Ctrl Pts',(-28.2031522399201,9.67317194547409,53.3118081550107));
#238=CARTESIAN_POINT('Ctrl Pts',(-28.7892616762648,7.75601756508591,53.6271938870018));
#239=CARTESIAN_POINT('Ctrl Pts',(-29.5628256407691,3.8751434150248,54.0464152020167));
#240=CARTESIAN_POINT('Ctrl Pts',(-29.75,1.91134071920092,54.15));
#241=CARTESIAN_POINT('Ctrl Pts',(-29.75,4.44089209850063E-15,54.15));
#242=CARTESIAN_POINT('Ctrl Pts',(-29.75,3.33066907387547E-15,54.15));
#243=CARTESIAN_POINT('Ctrl Pts',(-29.75,-1.91134071920091,54.15));
#244=CARTESIAN_POINT('Ctrl Pts',(-29.5628256407691,-3.87514341502479,54.0464152020167));
#245=CARTESIAN_POINT('Ctrl Pts',(-28.7892616762648,-7.7560175650859,53.6271938870018));
#246=CARTESIAN_POINT('Ctrl Pts',(-28.2031522399201,-9.67317194547408,53.3118081550107));
#247=CARTESIAN_POINT('Ctrl Pts',(-26.6713333774777,-13.3277156075323,52.5175316887867));
#248=CARTESIAN_POINT('Ctrl Pts',(-25.7243938489776,-15.0687015010703,52.0384152992777));
#249=CARTESIAN_POINT('Ctrl Pts',(-23.5546192130643,-18.2753965018912,51.0007089612133));
#250=CARTESIAN_POINT('Ctrl Pts',(-22.3316199421853,-19.7412335384143,50.4428577332456));
#251=CARTESIAN_POINT('Ctrl Pts',(-19.7357420330143,-22.3371114475852,49.3484390754243));
#252=CARTESIAN_POINT('Ctrl Pts',(-18.2671294298199,-23.560949823271,48.770746409285));
#253=CARTESIAN_POINT('Ctrl Pts',(-15.0613878553296,-25.7286021687434,47.6628061770763));
#254=CARTESIAN_POINT('Ctrl Pts',(-13.3241681737532,-26.6727845966448,47.1335422025794));
#255=CARTESIAN_POINT('Ctrl Pts',(-9.67769215655975,-28.2012932666606,46.2352190543993));
#256=CARTESIAN_POINT('Ctrl Pts',(-7.76477032444081,-28.7868464125653,45.8666685688815));
#257=CARTESIAN_POINT('Ctrl Pts',(-3.88574545188352,-29.5613796285545,45.3713417001636));
#258=CARTESIAN_POINT('Ctrl Pts',(-1.91944463594893,-29.75,45.2455522675986));
#259=CARTESIAN_POINT('Ctrl Pts',(1.11022302462516E-15,-29.75,45.2455522675986));
#260=CARTESIAN_POINT('',(-29.75,3.64332422746338E-15,120.));
#261=CARTESIAN_POINT('',(-29.75,-3.64332422746338E-15,0.));
#262=CARTESIAN_POINT('Origin',(0.,0.,120.));
#263=CARTESIAN_POINT('Origin',(0.,0.,0.));
#264=CARTESIAN_POINT('',(-120.,-54.15,-6.63146241738292E-15));
#265=CARTESIAN_POINT('Origin',(-120.,0.,0.));
#266=CARTESIAN_POINT('',(120.,-54.15,6.63146241738292E-15));
#267=CARTESIAN_POINT('',(0.,-54.15,-6.63146241738292E-15));
#268=CARTESIAN_POINT('Origin',(120.,0.,0.));
#269=CARTESIAN_POINT('Origin',(0.,0.,0.));
#270=CARTESIAN_POINT('',(-31.75,-3.88825358729285E-15,120.));
#271=CARTESIAN_POINT('Origin',(0.,0.,120.));
#272=CARTESIAN_POINT('',(-31.75,-3.88701708674045E-15,57.15));
#273=CARTESIAN_POINT('',(-31.75,-3.88825358729285E-15,0.));
#274=CARTESIAN_POINT('',(-5.55111512312578E-16,-31.75,47.5190488120291));
#275=CARTESIAN_POINT('Ctrl Pts',(-5.55111512312578E-16,-31.75,47.5190488120291));
#276=CARTESIAN_POINT('Ctrl Pts',(-2.05009858420879,-31.75,47.5190488120291));
#277=CARTESIAN_POINT('Ctrl Pts',(-4.14956288295829,-31.5483918723954,47.655689452883));
#278=CARTESIAN_POINT('Ctrl Pts',(-8.29025706473985,-30.7211904264193,48.1930931180561));
#279=CARTESIAN_POINT('Ctrl Pts',(-10.3317069308426,-30.0959871353394,48.59276087349));
#280=CARTESIAN_POINT('Ctrl Pts',(-14.2226349665625,-28.4645310829046,49.5660681029368));
#281=CARTESIAN_POINT('Ctrl Pts',(-16.0760411564972,-27.4569668832899,50.1391480674944));
#282=CARTESIAN_POINT('Ctrl Pts',(-19.496138900344,-25.1440787907618,51.3380414580159));
#283=CARTESIAN_POINT('Ctrl Pts',(-21.0629280108216,-23.8383525945241,51.9628001976334));
#284=CARTESIAN_POINT('Ctrl Pts',(-23.8321763587743,-21.0691042465715,53.1457644637298));
#285=CARTESIAN_POINT('Ctrl Pts',(-25.1369504109901,-19.5054451686845,53.7484912477832));
#286=CARTESIAN_POINT('Ctrl Pts',(-27.4522121559197,-16.0843002716966,54.8694631588842));
#287=CARTESIAN_POINT('Ctrl Pts',(-28.4628740727429,-14.2266735324858,55.3869182115957));
#288=CARTESIAN_POINT('Ctrl Pts',(-30.0980603669864,-10.3266756799083,56.2447217586844));
#289=CARTESIAN_POINT('Ctrl Pts',(-30.723898885245,-8.28045084446425,56.5853213747338));
#290=CARTESIAN_POINT('Ctrl Pts',(-31.5500193830461,-4.13764496424161,57.0380956504807));
#291=CARTESIAN_POINT('Ctrl Pts',(-31.75,-2.04097429220615,57.15));
#292=CARTESIAN_POINT('Ctrl Pts',(-31.75,-4.44089209850063E-15,57.15));
#293=CARTESIAN_POINT('Ctrl Pts',(-31.75,-3.88578058618805E-15,57.15));
#294=CARTESIAN_POINT('Ctrl Pts',(-31.75,2.04097429220614,57.15));
#295=CARTESIAN_POINT('Ctrl Pts',(-31.5500193830461,4.1376449642416,57.0380956504807));
#296=CARTESIAN_POINT('Ctrl Pts',(-30.723898885245,8.28045084446423,56.5853213747338));
#297=CARTESIAN_POINT('Ctrl Pts',(-30.0980603669864,10.3266756799083,56.2447217586844));
#298=CARTESIAN_POINT('Ctrl Pts',(-28.4628740727429,14.2266735324858,55.3869182115957));
#299=CARTESIAN_POINT('Ctrl Pts',(-27.4522121559197,16.0843002716966,54.8694631588842));
#300=CARTESIAN_POINT('Ctrl Pts',(-25.1369504109901,19.5054451686845,53.7484912477832));
#301=CARTESIAN_POINT('Ctrl Pts',(-23.8321763587743,21.0691042465715,53.1457644637298));
#302=CARTESIAN_POINT('Ctrl Pts',(-21.0629280108216,23.8383525945241,51.9628001976334));
#303=CARTESIAN_POINT('Ctrl Pts',(-19.496138900344,25.1440787907618,51.3380414580159));
#304=CARTESIAN_POINT('Ctrl Pts',(-16.0760411564972,27.4569668832899,50.1391480674944));
#305=CARTESIAN_POINT('Ctrl Pts',(-14.2226349665625,28.4645310829046,49.5660681029368));
#306=CARTESIAN_POINT('Ctrl Pts',(-10.3317069308426,30.0959871353394,48.59276087349));
#307=CARTESIAN_POINT('Ctrl Pts',(-8.29025706473985,30.7211904264193,48.1930931180561));
#308=CARTESIAN_POINT('Ctrl Pts',(-4.14956288295829,31.5483918723954,47.655689452883));
#309=CARTESIAN_POINT('Ctrl Pts',(-2.05009858420879,31.75,47.5190488120291));
#310=CARTESIAN_POINT('Ctrl Pts',(2.05009858420879,31.75,47.5190488120291));
#311=CARTESIAN_POINT('Ctrl Pts',(4.14956288295828,31.5483918723954,47.655689452883));
#312=CARTESIAN_POINT('Ctrl Pts',(8.29025706473985,30.7211904264193,48.1930931180561));
#313=CARTESIAN_POINT('Ctrl Pts',(10.3317069308426,30.0959871353394,48.59276087349));
#314=CARTESIAN_POINT('Ctrl Pts',(14.2226349665625,28.4645310829046,49.5660681029368));
#315=CARTESIAN_POINT('Ctrl Pts',(16.0760411564971,27.4569668832899,50.1391480674944));
#316=CARTESIAN_POINT('Ctrl Pts',(19.496138900344,25.1440787907618,51.3380414580158));
#317=CARTESIAN_POINT('Ctrl Pts',(21.0629280108216,23.8383525945241,51.9628001976334));
#318=CARTESIAN_POINT('Ctrl Pts',(23.8321763587743,21.0691042465715,53.1457644637298));
#319=CARTESIAN_POINT('Ctrl Pts',(25.1369504109901,19.5054451686845,53.7484912477832));
#320=CARTESIAN_POINT('Ctrl Pts',(27.4522121559197,16.0843002716966,54.8694631588841));
#321=CARTESIAN_POINT('Ctrl Pts',(28.4628740727429,14.2266735324858,55.3869182115957));
#322=CARTESIAN_POINT('Ctrl Pts',(30.0980603669864,10.3266756799083,56.2447217586844));
#323=CARTESIAN_POINT('Ctrl Pts',(30.723898885245,8.28045084446426,56.5853213747338));
#324=CARTESIAN_POINT('Ctrl Pts',(31.5500193830461,4.13764496424162,57.0380956504807));
#325=CARTESIAN_POINT('Ctrl Pts',(31.75,2.04097429220615,57.15));
#326=CARTESIAN_POINT('Ctrl Pts',(31.75,-2.04097429220613,57.15));
#327=CARTESIAN_POINT('Ctrl Pts',(31.5500193830461,-4.1376449642416,57.0380956504807));
#328=CARTESIAN_POINT('Ctrl Pts',(30.723898885245,-8.28045084446424,56.5853213747338));
#329=CARTESIAN_POINT('Ctrl Pts',(30.0980603669864,-10.3266756799083,56.2447217586844));
#330=CARTESIAN_POINT('Ctrl Pts',(28.4628740727429,-14.2266735324858,55.3869182115957));
#331=CARTESIAN_POINT('Ctrl Pts',(27.4522121559197,-16.0843002716966,54.8694631588842));
#332=CARTESIAN_POINT('Ctrl Pts',(25.1369504109901,-19.5054451686845,53.7484912477832));
#333=CARTESIAN_POINT('Ctrl Pts',(23.8321763587743,-21.0691042465715,53.1457644637298));
#334=CARTESIAN_POINT('Ctrl Pts',(21.0629280108216,-23.8383525945241,51.9628001976334));
#335=CARTESIAN_POINT('Ctrl Pts',(19.496138900344,-25.1440787907618,51.3380414580158));
#336=CARTESIAN_POINT('Ctrl Pts',(16.0760411564972,-27.4569668832899,50.1391480674944));
#337=CARTESIAN_POINT('Ctrl Pts',(14.2226349665625,-28.4645310829046,49.5660681029368));
#338=CARTESIAN_POINT('Ctrl Pts',(10.3317069308427,-30.0959871353394,48.59276087349));
#339=CARTESIAN_POINT('Ctrl Pts',(8.29025706473987,-30.7211904264193,48.1930931180561));
#340=CARTESIAN_POINT('Ctrl Pts',(4.1495628829583,-31.5483918723954,47.655689452883));
#341=CARTESIAN_POINT('Ctrl Pts',(2.0500985842088,-31.75,47.5190488120291));
#342=CARTESIAN_POINT('Ctrl Pts',(1.11022302462516E-15,-31.75,47.5190488120291));
#343=CARTESIAN_POINT('Origin',(0.,0.,120.));
#344=CARTESIAN_POINT('Origin',(-120.,0.,0.));
#345=CARTESIAN_POINT('',(-120.,-57.15,-6.99885645712712E-15));
#346=CARTESIAN_POINT('Origin',(-120.,0.,0.));
#347=CARTESIAN_POINT('Origin',(0.,0.,0.));
#348=CARTESIAN_POINT('',(120.,-57.15,-6.99885645712712E-15));
#349=CARTESIAN_POINT('Origin',(120.,0.,0.));
#350=CARTESIAN_POINT('',(0.,-57.15,-6.99885645712712E-15));
#351=CARTESIAN_POINT('Origin',(120.,0.,0.));
#352=UNCERTAINTY_MEASURE_WITH_UNIT(LENGTH_MEASURE(0.01),#356,
'DISTANCE_ACCURACY_VALUE',
'Maximum model space distance between geometric entities at asserted c
onnectivities');
#353=UNCERTAINTY_MEASURE_WITH_UNIT(LENGTH_MEASURE(0.01),#356,
'DISTANCE_ACCURACY_VALUE',
'Maximum model space distance between geometric entities at asserted c
onnectivities');
#354=(
GEOMETRIC_REPRESENTATION_CONTEXT(3)
GLOBAL_UNCERTAINTY_ASSIGNED_CONTEXT((#352))
GLOBAL_UNIT_ASSIGNED_CONTEXT((#356,#358,#359))
REPRESENTATION_CONTEXT('','3D')
);
#355=(
GEOMETRIC_REPRESENTATION_CONTEXT(3)
GLOBAL_UNCERTAINTY_ASSIGNED_CONTEXT((#353))
GLOBAL_UNIT_ASSIGNED_CONTEXT((#356,#358,#359))
REPRESENTATION_CONTEXT('','3D')
);
#356=(
LENGTH_UNIT()
NAMED_UNIT(*)
SI_UNIT(.MILLI.,.METRE.)
);
#357=(
LENGTH_UNIT()
NAMED_UNIT(*)
SI_UNIT(.CENTI.,.METRE.)
);
#358=(
NAMED_UNIT(*)
PLANE_ANGLE_UNIT()
SI_UNIT($,.RADIAN.)
);
#359=(
NAMED_UNIT(*)
SI_UNIT($,.STERADIAN.)
SOLID_ANGLE_UNIT()
);
#360=SHAPE_DEFINITION_REPRESENTATION(#361,#362);
#361=PRODUCT_DEFINITION_SHAPE('',$,#364);
#362=SHAPE_REPRESENTATION('',(#142),#354);
#363=PRODUCT_DEFINITION_CONTEXT('part definition',#368,'design');
#364=PRODUCT_DEFINITION('D8(R) 45\X\D725','D8(R) 45\X\D725',#365,#363);
#365=PRODUCT_DEFINITION_FORMATION('',$,#370);
#366=PRODUCT_RELATED_PRODUCT_CATEGORY('D8(R) 45\X\D725','D8(R) 45\X\D7
25',(#370));
#367=APPLICATION_PROTOCOL_DEFINITION('international standard',
'automotive_design',2009,#368);
#368=APPLICATION_CONTEXT(
'Core Data for Automotive Mechanical Design Process');
#369=PRODUCT_CONTEXT('part definition',#368,'mechanical');
#370=PRODUCT('D8(R) 45\X\D725','D8(R) 45\X\D725',$,(#369));
#371=PRESENTATION_STYLE_ASSIGNMENT((#372));
#372=SURFACE_STYLE_USAGE(.BOTH.,#375);
#373=SURFACE_STYLE_RENDERING_WITH_PROPERTIES($,#379,(#374));
#374=SURFACE_STYLE_TRANSPARENT(0.);
#375=SURFACE_SIDE_STYLE('',(#376,#373));
#376=SURFACE_STYLE_FILL_AREA(#377);
#377=FILL_AREA_STYLE('',(#378));
#378=FILL_AREA_STYLE_COLOUR('',#379);
#379=COLOUR_RGB('',0.749019607843137,0.749019607843137,0.749019607843137);
ENDSEC;
END-ISO-10303-21;
