ISO-10303-21;
HEADER;
/* Generated by software containing ST-Developer
 * from STEP Tools, Inc. (www.steptools.com) 
 */

FILE_DESCRIPTION(
/* description */ (''),
/* implementation_level */ '2;1');

FILE_NAME(
/* name */ 
'\\\\Tske00\\w\\Work\\TOSTE\\\X2\7D99624B\X0\\\02_\X2\6EB663A5\X0\\\\X2\6EB663A5752830C130FC30BA\X0\\\
D8(R)\\D8(R) 40\X\D735.stp',
/* time_stamp */ '2022-04-12T17:38:56+09:00',
/* author */ ('3dcad-eng'),
/* organization */ (''),
/* preprocessor_version */ 'ST-DEVELOPER v18.1',
/* originating_system */ 'Autodesk Inventor 2022',
/* authorisation */ '');

FILE_SCHEMA (('AUTOMOTIVE_DESIGN { 1 0 10303 214 3 1 1 }'));
ENDSEC;

DATA;
#10=MECHANICAL_DESIGN_GEOMETRIC_PRESENTATION_REPRESENTATION('',(#13),#355);
#11=SHAPE_REPRESENTATION_RELATIONSHIP('SRR','None',#362,#12);
#12=ADVANCED_BREP_SHAPE_REPRESENTATION('',(#14),#354);
#13=STYLED_ITEM('',(#371),#14);
#14=MANIFOLD_SOLID_BREP('\X2\30BD30EA30C330C9\X0\1',#123);
#15=PLANE('',#150);
#16=PLANE('',#151);
#17=PLANE('',#155);
#18=FACE_BOUND('',#32,.T.);
#19=FACE_BOUND('',#35,.T.);
#20=FACE_BOUND('',#37,.T.);
#21=FACE_BOUND('',#39,.T.);
#22=FACE_BOUND('',#41,.T.);
#23=FACE_OUTER_BOUND('',#30,.T.);
#24=FACE_OUTER_BOUND('',#31,.T.);
#25=FACE_OUTER_BOUND('',#33,.T.);
#26=FACE_OUTER_BOUND('',#34,.T.);
#27=FACE_OUTER_BOUND('',#36,.T.);
#28=FACE_OUTER_BOUND('',#38,.T.);
#29=FACE_OUTER_BOUND('',#40,.T.);
#30=EDGE_LOOP('',(#84,#85,#86,#87,#88));
#31=EDGE_LOOP('',(#89,#90,#91,#92));
#32=EDGE_LOOP('',(#93,#94));
#33=EDGE_LOOP('',(#95,#96,#97,#98,#99));
#34=EDGE_LOOP('',(#100));
#35=EDGE_LOOP('',(#101));
#36=EDGE_LOOP('',(#102));
#37=EDGE_LOOP('',(#103));
#38=EDGE_LOOP('',(#104,#105,#106,#107));
#39=EDGE_LOOP('',(#108,#109));
#40=EDGE_LOOP('',(#110));
#41=EDGE_LOOP('',(#111));
#42=CIRCLE('',#144,42.55);
#43=CIRCLE('',#146,48.8);
#44=CIRCLE('',#147,48.8);
#45=CIRCLE('',#149,44.55);
#46=CIRCLE('',#152,50.8);
#47=CIRCLE('',#154,50.8);
#48=LINE('',#261,#52);
#49=LINE('',#267,#53);
#50=LINE('',#273,#54);
#51=LINE('',#350,#55);
#52=VECTOR('',#160,42.55);
#53=VECTOR('',#167,48.8);
#54=VECTOR('',#174,44.55);
#55=VECTOR('',#185,50.8);
#56=B_SPLINE_CURVE_WITH_KNOTS('',3,(#192,#193,#194,#195,#196,#197,#198,
#199,#200,#201,#202,#203,#204,#205,#206,#207,#208,#209,#210,#211,#212,#213,
#214,#215,#216,#217,#218,#219,#220,#221,#222,#223,#224,#225,#226,#227,#228,
#229,#230,#231,#232,#233,#234,#235,#236,#237,#238,#239,#240,#241),
 .UNSPECIFIED.,.F.,.F.,(4,2,2,2,2,2,2,2,2,2,2,2,2,2,2,2,2,2,2,2,2,2,2,2,
4),(0.,0.906900403721395,1.81380080744279,2.72070121116419,3.62760161488558,
4.48360677132349,5.3396119277614,6.19561708419931,7.05162224063722,7.90762739707513,
8.76363255351304,9.61963770995095,10.4756428663889,11.3825432701103,12.2894436738317,
13.196344077553,14.1032444812744,15.0101448849958,15.9170452887172,16.8239456924386,
17.73084609616,18.5868512525979,19.4428564090358,20.2988615654738,21.1548667219117),
 .UNSPECIFIED.);
#57=B_SPLINE_CURVE_WITH_KNOTS('',3,(#242,#243,#244,#245,#246,#247,#248,
#249,#250,#251,#252,#253,#254,#255,#256,#257,#258,#259),.UNSPECIFIED.,.F.,
 .F.,(4,2,2,2,2,2,2,2,4),(21.1548667219117,22.0108718783496,22.8668770347875,
23.7228821912254,24.5788873476633,25.4857877513847,26.3926881551061,27.2995885588275,
28.2064889625489),.UNSPECIFIED.);
#58=B_SPLINE_CURVE_WITH_KNOTS('',3,(#275,#276,#277,#278,#279,#280,#281,
#282,#283,#284,#285,#286,#287,#288,#289,#290,#291,#292),.UNSPECIFIED.,.F.,
 .F.,(4,2,2,2,2,2,2,2,4),(0.,0.952960924702712,1.90592184940542,2.85888277410814,
3.81184369881085,4.70893631112777,5.6060289234447,6.50312153576162,7.40021414807854),
 .UNSPECIFIED.);
#59=B_SPLINE_CURVE_WITH_KNOTS('',3,(#293,#294,#295,#296,#297,#298,#299,
#300,#301,#302,#303,#304,#305,#306,#307,#308,#309,#310,#311,#312,#313,#314,
#315,#316,#317,#318,#319,#320,#321,#322,#323,#324,#325,#326,#327,#328,#329,
#330,#331,#332,#333,#334,#335,#336,#337,#338,#339,#340,#341,#342),
 .UNSPECIFIED.,.F.,.F.,(4,2,2,2,2,2,2,2,2,2,2,2,2,2,2,2,2,2,2,2,2,2,2,2,
4),(7.40021414807854,8.29730676039547,9.19439937271239,10.0914919850293,
10.9885845973462,11.941545522049,12.8945064467517,13.8474673714544,14.8004282961571,
15.7533892208598,16.7063501455625,17.6593110702652,18.6122719949679,19.5093646072849,
20.4064572196018,21.3035498319187,22.2006424442356,23.0977350565526,23.9948276688695,
24.8919202811864,25.7890128935033,26.741973818206,27.6949347429088,28.6478956676115,
29.6008565923142),.UNSPECIFIED.);
#60=VERTEX_POINT('',#190);
#61=VERTEX_POINT('',#191);
#62=VERTEX_POINT('',#260);
#63=VERTEX_POINT('',#264);
#64=VERTEX_POINT('',#266);
#65=VERTEX_POINT('',#270);
#66=VERTEX_POINT('',#272);
#67=VERTEX_POINT('',#274);
#68=VERTEX_POINT('',#345);
#69=VERTEX_POINT('',#348);
#70=EDGE_CURVE('',#60,#61,#56,.T.);
#71=EDGE_CURVE('',#61,#60,#57,.T.);
#72=EDGE_CURVE('',#61,#62,#48,.T.);
#73=EDGE_CURVE('',#62,#62,#42,.T.);
#74=EDGE_CURVE('',#63,#63,#43,.T.);
#75=EDGE_CURVE('',#63,#64,#49,.T.);
#76=EDGE_CURVE('',#64,#64,#44,.T.);
#77=EDGE_CURVE('',#65,#65,#45,.T.);
#78=EDGE_CURVE('',#65,#66,#50,.T.);
#79=EDGE_CURVE('',#67,#66,#58,.T.);
#80=EDGE_CURVE('',#66,#67,#59,.T.);
#81=EDGE_CURVE('',#68,#68,#46,.T.);
#82=EDGE_CURVE('',#69,#69,#47,.T.);
#83=EDGE_CURVE('',#69,#68,#51,.T.);
#84=ORIENTED_EDGE('',*,*,#70,.F.);
#85=ORIENTED_EDGE('',*,*,#71,.F.);
#86=ORIENTED_EDGE('',*,*,#72,.T.);
#87=ORIENTED_EDGE('',*,*,#73,.F.);
#88=ORIENTED_EDGE('',*,*,#72,.F.);
#89=ORIENTED_EDGE('',*,*,#74,.F.);
#90=ORIENTED_EDGE('',*,*,#75,.T.);
#91=ORIENTED_EDGE('',*,*,#76,.F.);
#92=ORIENTED_EDGE('',*,*,#75,.F.);
#93=ORIENTED_EDGE('',*,*,#70,.T.);
#94=ORIENTED_EDGE('',*,*,#71,.T.);
#95=ORIENTED_EDGE('',*,*,#77,.F.);
#96=ORIENTED_EDGE('',*,*,#78,.T.);
#97=ORIENTED_EDGE('',*,*,#79,.F.);
#98=ORIENTED_EDGE('',*,*,#80,.F.);
#99=ORIENTED_EDGE('',*,*,#78,.F.);
#100=ORIENTED_EDGE('',*,*,#77,.T.);
#101=ORIENTED_EDGE('',*,*,#73,.T.);
#102=ORIENTED_EDGE('',*,*,#81,.T.);
#103=ORIENTED_EDGE('',*,*,#74,.T.);
#104=ORIENTED_EDGE('',*,*,#82,.F.);
#105=ORIENTED_EDGE('',*,*,#83,.T.);
#106=ORIENTED_EDGE('',*,*,#81,.F.);
#107=ORIENTED_EDGE('',*,*,#83,.F.);
#108=ORIENTED_EDGE('',*,*,#79,.T.);
#109=ORIENTED_EDGE('',*,*,#80,.T.);
#110=ORIENTED_EDGE('',*,*,#82,.T.);
#111=ORIENTED_EDGE('',*,*,#76,.T.);
#112=CYLINDRICAL_SURFACE('',#143,42.55);
#113=CYLINDRICAL_SURFACE('',#145,48.8);
#114=CYLINDRICAL_SURFACE('',#148,44.55);
#115=CYLINDRICAL_SURFACE('',#153,50.8);
#116=ADVANCED_FACE('',(#23),#112,.F.);
#117=ADVANCED_FACE('',(#24,#18),#113,.F.);
#118=ADVANCED_FACE('',(#25),#114,.T.);
#119=ADVANCED_FACE('',(#26,#19),#15,.T.);
#120=ADVANCED_FACE('',(#27,#20),#16,.F.);
#121=ADVANCED_FACE('',(#28,#21),#115,.T.);
#122=ADVANCED_FACE('',(#29,#22),#17,.T.);
#123=CLOSED_SHELL('',(#116,#117,#118,#119,#120,#121,#122));
#124=DERIVED_UNIT_ELEMENT(#126,1.);
#125=DERIVED_UNIT_ELEMENT(#357,-3.);
#126=(
MASS_UNIT()
NAMED_UNIT(*)
SI_UNIT($,.GRAM.)
);
#127=DERIVED_UNIT((#124,#125));
#128=MEASURE_REPRESENTATION_ITEM('density measure',
POSITIVE_RATIO_MEASURE(1.),#127);
#129=PROPERTY_DEFINITION_REPRESENTATION(#134,#131);
#130=PROPERTY_DEFINITION_REPRESENTATION(#135,#132);
#131=REPRESENTATION('material name',(#133),#354);
#132=REPRESENTATION('density',(#128),#354);
#133=DESCRIPTIVE_REPRESENTATION_ITEM('\X2\4E00822C\X0\','\X2\4E00822C\X0\');
#134=PROPERTY_DEFINITION('material property','material name',#364);
#135=PROPERTY_DEFINITION('material property','density of part',#364);
#136=DATE_TIME_ROLE('creation_date');
#137=APPLIED_DATE_AND_TIME_ASSIGNMENT(#138,#136,(#364));
#138=DATE_AND_TIME(#139,#140);
#139=CALENDAR_DATE(2022,31,3);
#140=LOCAL_TIME(0,0,0.,#141);
#141=COORDINATED_UNIVERSAL_TIME_OFFSET(0,0,.BEHIND.);
#142=AXIS2_PLACEMENT_3D('placement',#188,#156,#157);
#143=AXIS2_PLACEMENT_3D('',#189,#158,#159);
#144=AXIS2_PLACEMENT_3D('',#262,#161,#162);
#145=AXIS2_PLACEMENT_3D('',#263,#163,#164);
#146=AXIS2_PLACEMENT_3D('',#265,#165,#166);
#147=AXIS2_PLACEMENT_3D('',#268,#168,#169);
#148=AXIS2_PLACEMENT_3D('',#269,#170,#171);
#149=AXIS2_PLACEMENT_3D('',#271,#172,#173);
#150=AXIS2_PLACEMENT_3D('',#343,#175,#176);
#151=AXIS2_PLACEMENT_3D('',#344,#177,#178);
#152=AXIS2_PLACEMENT_3D('',#346,#179,#180);
#153=AXIS2_PLACEMENT_3D('',#347,#181,#182);
#154=AXIS2_PLACEMENT_3D('',#349,#183,#184);
#155=AXIS2_PLACEMENT_3D('',#351,#186,#187);
#156=DIRECTION('axis',(0.,0.,1.));
#157=DIRECTION('refdir',(1.,0.,0.));
#158=DIRECTION('center_axis',(0.,0.,1.));
#159=DIRECTION('ref_axis',(1.,0.,0.));
#160=DIRECTION('',(0.,0.,1.));
#161=DIRECTION('center_axis',(0.,0.,-1.));
#162=DIRECTION('ref_axis',(1.,0.,0.));
#163=DIRECTION('center_axis',(1.,0.,0.));
#164=DIRECTION('ref_axis',(0.,1.,0.));
#165=DIRECTION('center_axis',(1.,0.,0.));
#166=DIRECTION('ref_axis',(0.,1.,0.));
#167=DIRECTION('',(1.,0.,0.));
#168=DIRECTION('center_axis',(-1.,0.,0.));
#169=DIRECTION('ref_axis',(0.,1.,0.));
#170=DIRECTION('center_axis',(0.,0.,1.));
#171=DIRECTION('ref_axis',(1.,0.,0.));
#172=DIRECTION('center_axis',(0.,0.,1.));
#173=DIRECTION('ref_axis',(1.,0.,0.));
#174=DIRECTION('',(0.,0.,-1.));
#175=DIRECTION('center_axis',(0.,0.,1.));
#176=DIRECTION('ref_axis',(1.,0.,0.));
#177=DIRECTION('center_axis',(1.,0.,0.));
#178=DIRECTION('ref_axis',(0.,0.,-1.));
#179=DIRECTION('center_axis',(-1.,0.,0.));
#180=DIRECTION('ref_axis',(0.,1.,0.));
#181=DIRECTION('center_axis',(1.,0.,0.));
#182=DIRECTION('ref_axis',(0.,1.,0.));
#183=DIRECTION('center_axis',(1.,0.,0.));
#184=DIRECTION('ref_axis',(0.,1.,0.));
#185=DIRECTION('',(-1.,0.,0.));
#186=DIRECTION('center_axis',(1.,0.,0.));
#187=DIRECTION('ref_axis',(0.,0.,-1.));
#188=CARTESIAN_POINT('',(0.,0.,0.));
#189=CARTESIAN_POINT('Origin',(0.,0.,0.));
#190=CARTESIAN_POINT('',(0.,-42.55,23.894298483111));
#191=CARTESIAN_POINT('',(-42.55,-6.6254577209197E-16,48.8));
#192=CARTESIAN_POINT('Ctrl Pts',(0.,-42.55,23.894298483111));
#193=CARTESIAN_POINT('Ctrl Pts',(3.02300134573799,-42.55,23.894298483111));
#194=CARTESIAN_POINT('Ctrl Pts',(5.92160228476312,-42.2314251427374,24.478298495246));
#195=CARTESIAN_POINT('Ctrl Pts',(11.4783461259803,-41.0707464694328,26.3794266278515));
#196=CARTESIAN_POINT('Ctrl Pts',(14.1395996111926,-40.2267562409695,27.6862956541583));
#197=CARTESIAN_POINT('Ctrl Pts',(19.2180101786736,-38.0629612775212,30.59303284985));
#198=CARTESIAN_POINT('Ctrl Pts',(21.6323918023654,-36.7414530455507,32.192622297897));
#199=CARTESIAN_POINT('Ctrl Pts',(26.1327931404753,-33.6893435378774,35.3741068861014));
#200=CARTESIAN_POINT('Ctrl Pts',(28.2173613973119,-31.9574256816633,36.9567918077927));
#201=CARTESIAN_POINT('Ctrl Pts',(31.8524794848002,-28.322307594175,39.80342916565));
#202=CARTESIAN_POINT('Ctrl Pts',(33.5530153225283,-26.3065245498619,41.1825007011946));
#203=CARTESIAN_POINT('Ctrl Pts',(36.617673468131,-21.839964778483,43.7155296961919));
#204=CARTESIAN_POINT('Ctrl Pts',(37.9817469331713,-19.3887739942771,44.8688160695951));
#205=CARTESIAN_POINT('Ctrl Pts',(40.2180152610013,-14.1791748971155,46.7769847465095));
#206=CARTESIAN_POINT('Ctrl Pts',(41.0922164608619,-11.4144272114477,47.5333948842562));
#207=CARTESIAN_POINT('Ctrl Pts',(42.2584706962942,-5.75161340454462,48.5451513660389));
#208=CARTESIAN_POINT('Ctrl Pts',(42.55,-2.8533505214597,48.8));
#209=CARTESIAN_POINT('Ctrl Pts',(42.55,2.8533505214597,48.8));
#210=CARTESIAN_POINT('Ctrl Pts',(42.2584706962942,5.75161340454462,48.5451513660389));
#211=CARTESIAN_POINT('Ctrl Pts',(41.0922164608619,11.4144272114477,47.5333948842562));
#212=CARTESIAN_POINT('Ctrl Pts',(40.2180152610013,14.1791748971155,46.7769847465095));
#213=CARTESIAN_POINT('Ctrl Pts',(37.9817469331712,19.3887739942771,44.8688160695951));
#214=CARTESIAN_POINT('Ctrl Pts',(36.617673468131,21.839964778483,43.7155296961919));
#215=CARTESIAN_POINT('Ctrl Pts',(33.5530153225283,26.3065245498619,41.1825007011946));
#216=CARTESIAN_POINT('Ctrl Pts',(31.8524794848002,28.322307594175,39.80342916565));
#217=CARTESIAN_POINT('Ctrl Pts',(28.2173613973119,31.9574256816633,36.9567918077927));
#218=CARTESIAN_POINT('Ctrl Pts',(26.1327931404753,33.6893435378774,35.3741068861014));
#219=CARTESIAN_POINT('Ctrl Pts',(21.6323918023654,36.7414530455507,32.192622297897));
#220=CARTESIAN_POINT('Ctrl Pts',(19.2180101786736,38.0629612775212,30.59303284985));
#221=CARTESIAN_POINT('Ctrl Pts',(14.1395996111926,40.2267562409695,27.6862956541583));
#222=CARTESIAN_POINT('Ctrl Pts',(11.4783461259803,41.0707464694328,26.3794266278514));
#223=CARTESIAN_POINT('Ctrl Pts',(5.92160228476313,42.2314251427374,24.478298495246));
#224=CARTESIAN_POINT('Ctrl Pts',(3.02300134573798,42.55,23.894298483111));
#225=CARTESIAN_POINT('Ctrl Pts',(-3.02300134573798,42.55,23.894298483111));
#226=CARTESIAN_POINT('Ctrl Pts',(-5.92160228476313,42.2314251427374,24.478298495246));
#227=CARTESIAN_POINT('Ctrl Pts',(-11.4783461259803,41.0707464694328,26.3794266278514));
#228=CARTESIAN_POINT('Ctrl Pts',(-14.1395996111926,40.2267562409695,27.6862956541583));
#229=CARTESIAN_POINT('Ctrl Pts',(-19.2180101786736,38.0629612775212,30.59303284985));
#230=CARTESIAN_POINT('Ctrl Pts',(-21.6323918023654,36.7414530455507,32.192622297897));
#231=CARTESIAN_POINT('Ctrl Pts',(-26.1327931404753,33.6893435378774,35.3741068861014));
#232=CARTESIAN_POINT('Ctrl Pts',(-28.2173613973119,31.9574256816633,36.9567918077927));
#233=CARTESIAN_POINT('Ctrl Pts',(-31.8524794848002,28.322307594175,39.80342916565));
#234=CARTESIAN_POINT('Ctrl Pts',(-33.5530153225283,26.3065245498619,41.1825007011946));
#235=CARTESIAN_POINT('Ctrl Pts',(-36.617673468131,21.839964778483,43.7155296961919));
#236=CARTESIAN_POINT('Ctrl Pts',(-37.9817469331712,19.3887739942771,44.8688160695951));
#237=CARTESIAN_POINT('Ctrl Pts',(-40.2180152610013,14.1791748971155,46.7769847465095));
#238=CARTESIAN_POINT('Ctrl Pts',(-41.0922164608619,11.4144272114477,47.5333948842563));
#239=CARTESIAN_POINT('Ctrl Pts',(-42.2584706962942,5.75161340454462,48.5451513660389));
#240=CARTESIAN_POINT('Ctrl Pts',(-42.55,2.8533505214597,48.8));
#241=CARTESIAN_POINT('Ctrl Pts',(-42.55,4.44089209850063E-15,48.8));
#242=CARTESIAN_POINT('Ctrl Pts',(-42.55,3.88578058618805E-15,48.8));
#243=CARTESIAN_POINT('Ctrl Pts',(-42.55,-2.85335052145969,48.8));
#244=CARTESIAN_POINT('Ctrl Pts',(-42.2584706962942,-5.75161340454462,48.5451513660389));
#245=CARTESIAN_POINT('Ctrl Pts',(-41.0922164608619,-11.4144272114477,47.5333948842562));
#246=CARTESIAN_POINT('Ctrl Pts',(-40.2180152610013,-14.1791748971155,46.7769847465095));
#247=CARTESIAN_POINT('Ctrl Pts',(-37.9817469331713,-19.3887739942771,44.8688160695951));
#248=CARTESIAN_POINT('Ctrl Pts',(-36.617673468131,-21.839964778483,43.7155296961919));
#249=CARTESIAN_POINT('Ctrl Pts',(-33.5530153225283,-26.3065245498619,41.1825007011946));
#250=CARTESIAN_POINT('Ctrl Pts',(-31.8524794848002,-28.322307594175,39.80342916565));
#251=CARTESIAN_POINT('Ctrl Pts',(-28.2173613973119,-31.9574256816633,36.9567918077927));
#252=CARTESIAN_POINT('Ctrl Pts',(-26.1327931404753,-33.6893435378774,35.3741068861014));
#253=CARTESIAN_POINT('Ctrl Pts',(-21.6323918023654,-36.7414530455507,32.192622297897));
#254=CARTESIAN_POINT('Ctrl Pts',(-19.2180101786736,-38.0629612775212,30.59303284985));
#255=CARTESIAN_POINT('Ctrl Pts',(-14.1395996111926,-40.2267562409695,27.6862956541584));
#256=CARTESIAN_POINT('Ctrl Pts',(-11.4783461259804,-41.0707464694328,26.3794266278515));
#257=CARTESIAN_POINT('Ctrl Pts',(-5.92160228476315,-42.2314251427374,24.478298495246));
#258=CARTESIAN_POINT('Ctrl Pts',(-3.02300134573798,-42.55,23.894298483111));
#259=CARTESIAN_POINT('Ctrl Pts',(9.99200722162641E-15,-42.55,23.894298483111));
#260=CARTESIAN_POINT('',(-42.55,5.21087213037199E-15,133.4));
#261=CARTESIAN_POINT('',(-42.55,-5.21087213037199E-15,0.));
#262=CARTESIAN_POINT('Origin',(0.,0.,133.4));
#263=CARTESIAN_POINT('Origin',(0.,0.,0.));
#264=CARTESIAN_POINT('',(-133.4,-48.8,-5.97627637983908E-15));
#265=CARTESIAN_POINT('Origin',(-133.4,0.,0.));
#266=CARTESIAN_POINT('',(133.4,-48.8,5.97627637983908E-15));
#267=CARTESIAN_POINT('',(0.,-48.8,-5.97627637983908E-15));
#268=CARTESIAN_POINT('Origin',(133.4,0.,0.));
#269=CARTESIAN_POINT('Origin',(0.,0.,0.));
#270=CARTESIAN_POINT('',(-44.55,-5.45580149020146E-15,133.4));
#271=CARTESIAN_POINT('Origin',(0.,0.,133.4));
#272=CARTESIAN_POINT('',(-44.55,-4.94834679435104E-15,50.8));
#273=CARTESIAN_POINT('',(-44.55,-5.45580149020146E-15,0.));
#274=CARTESIAN_POINT('',(5.55111512312578E-16,-44.55,24.4118311480315));
#275=CARTESIAN_POINT('Ctrl Pts',(5.55111512312578E-16,-44.55,24.4118311480315));
#276=CARTESIAN_POINT('Ctrl Pts',(-3.17653641567571,-44.55,24.4118311480315));
#277=CARTESIAN_POINT('Ctrl Pts',(-6.21098101402831,-44.2147303758979,25.0419823370578));
#278=CARTESIAN_POINT('Ctrl Pts',(-12.0236980632009,-42.9994111319473,27.0757068006001));
#279=CARTESIAN_POINT('Ctrl Pts',(-14.8051874501609,-42.1170157324349,28.4686679552274));
#280=CARTESIAN_POINT('Ctrl Pts',(-20.1171629130996,-39.8539513543421,31.5589969574317));
#281=CARTESIAN_POINT('Ctrl Pts',(-22.643837612028,-38.4715960316805,33.2561394302384));
#282=CARTESIAN_POINT('Ctrl Pts',(-27.356519451035,-35.2764500005107,36.627948218051));
#283=CARTESIAN_POINT('Ctrl Pts',(-29.5409288485687,-33.4622853551527,38.3035453084635));
#284=CARTESIAN_POINT('Ctrl Pts',(-33.3473385799981,-29.6558756237233,41.3122773817706));
#285=CARTESIAN_POINT('Ctrl Pts',(-35.1266080223584,-27.5473617737766,42.767135883078));
#286=CARTESIAN_POINT('Ctrl Pts',(-38.334425860405,-22.8737300517233,45.4387227609175));
#287=CARTESIAN_POINT('Ctrl Pts',(-39.7629142082152,-20.3081777764943,46.6547632376997));
#288=CARTESIAN_POINT('Ctrl Pts',(-42.1054747879885,-14.8539735110277,48.6667092479565));
#289=CARTESIAN_POINT('Ctrl Pts',(-43.0216552780213,-11.9586654048352,49.4642420951002));
#290=CARTESIAN_POINT('Ctrl Pts',(-44.244192141535,-6.02693645183681,50.5311484279298));
#291=CARTESIAN_POINT('Ctrl Pts',(-44.55,-2.99030870772308,50.8));
#292=CARTESIAN_POINT('Ctrl Pts',(-44.55,-4.9960036108132E-15,50.8));
#293=CARTESIAN_POINT('Ctrl Pts',(-44.55,-3.33066907387547E-15,50.8));
#294=CARTESIAN_POINT('Ctrl Pts',(-44.55,2.99030870772308,50.8));
#295=CARTESIAN_POINT('Ctrl Pts',(-44.244192141535,6.02693645183681,50.5311484279298));
#296=CARTESIAN_POINT('Ctrl Pts',(-43.0216552780213,11.9586654048352,49.4642420951002));
#297=CARTESIAN_POINT('Ctrl Pts',(-42.1054747879885,14.8539735110277,48.6667092479565));
#298=CARTESIAN_POINT('Ctrl Pts',(-39.7629142082152,20.3081777764943,46.6547632376997));
#299=CARTESIAN_POINT('Ctrl Pts',(-38.334425860405,22.8737300517233,45.4387227609175));
#300=CARTESIAN_POINT('Ctrl Pts',(-35.1266080223584,27.5473617737766,42.767135883078));
#301=CARTESIAN_POINT('Ctrl Pts',(-33.3473385799981,29.6558756237233,41.3122773817706));
#302=CARTESIAN_POINT('Ctrl Pts',(-29.5409288485687,33.4622853551527,38.3035453084635));
#303=CARTESIAN_POINT('Ctrl Pts',(-27.356519451035,35.2764500005107,36.627948218051));
#304=CARTESIAN_POINT('Ctrl Pts',(-22.643837612028,38.4715960316805,33.2561394302384));
#305=CARTESIAN_POINT('Ctrl Pts',(-20.1171629130996,39.8539513543421,31.5589969574317));
#306=CARTESIAN_POINT('Ctrl Pts',(-14.8051874501609,42.1170157324349,28.4686679552274));
#307=CARTESIAN_POINT('Ctrl Pts',(-12.0236980632009,42.9994111319473,27.0757068006001));
#308=CARTESIAN_POINT('Ctrl Pts',(-6.21098101402831,44.2147303758979,25.0419823370578));
#309=CARTESIAN_POINT('Ctrl Pts',(-3.17653641567571,44.55,24.4118311480315));
#310=CARTESIAN_POINT('Ctrl Pts',(3.17653641567571,44.55,24.4118311480315));
#311=CARTESIAN_POINT('Ctrl Pts',(6.21098101402832,44.2147303758979,25.0419823370578));
#312=CARTESIAN_POINT('Ctrl Pts',(12.0236980632009,42.9994111319473,27.0757068006001));
#313=CARTESIAN_POINT('Ctrl Pts',(14.805187450161,42.1170157324349,28.4686679552274));
#314=CARTESIAN_POINT('Ctrl Pts',(20.1171629130996,39.8539513543421,31.5589969574317));
#315=CARTESIAN_POINT('Ctrl Pts',(22.643837612028,38.4715960316805,33.2561394302384));
#316=CARTESIAN_POINT('Ctrl Pts',(27.356519451035,35.2764500005107,36.627948218051));
#317=CARTESIAN_POINT('Ctrl Pts',(29.5409288485687,33.4622853551527,38.3035453084635));
#318=CARTESIAN_POINT('Ctrl Pts',(33.3473385799981,29.6558756237233,41.3122773817705));
#319=CARTESIAN_POINT('Ctrl Pts',(35.1266080223584,27.5473617737766,42.767135883078));
#320=CARTESIAN_POINT('Ctrl Pts',(38.334425860405,22.8737300517233,45.4387227609174));
#321=CARTESIAN_POINT('Ctrl Pts',(39.7629142082152,20.3081777764943,46.6547632376997));
#322=CARTESIAN_POINT('Ctrl Pts',(42.1054747879885,14.8539735110278,48.6667092479565));
#323=CARTESIAN_POINT('Ctrl Pts',(43.0216552780213,11.9586654048352,49.4642420951002));
#324=CARTESIAN_POINT('Ctrl Pts',(44.244192141535,6.02693645183683,50.5311484279298));
#325=CARTESIAN_POINT('Ctrl Pts',(44.55,2.9903087077231,50.8));
#326=CARTESIAN_POINT('Ctrl Pts',(44.55,-2.99030870772307,50.8));
#327=CARTESIAN_POINT('Ctrl Pts',(44.244192141535,-6.0269364518368,50.5311484279298));
#328=CARTESIAN_POINT('Ctrl Pts',(43.0216552780213,-11.9586654048352,49.4642420951002));
#329=CARTESIAN_POINT('Ctrl Pts',(42.1054747879885,-14.8539735110277,48.6667092479565));
#330=CARTESIAN_POINT('Ctrl Pts',(39.7629142082152,-20.3081777764943,46.6547632376997));
#331=CARTESIAN_POINT('Ctrl Pts',(38.334425860405,-22.8737300517233,45.4387227609175));
#332=CARTESIAN_POINT('Ctrl Pts',(35.1266080223584,-27.5473617737766,42.767135883078));
#333=CARTESIAN_POINT('Ctrl Pts',(33.3473385799981,-29.6558756237233,41.3122773817705));
#334=CARTESIAN_POINT('Ctrl Pts',(29.5409288485687,-33.4622853551527,38.3035453084635));
#335=CARTESIAN_POINT('Ctrl Pts',(27.356519451035,-35.2764500005107,36.627948218051));
#336=CARTESIAN_POINT('Ctrl Pts',(22.643837612028,-38.4715960316805,33.2561394302384));
#337=CARTESIAN_POINT('Ctrl Pts',(20.1171629130996,-39.8539513543421,31.5589969574317));
#338=CARTESIAN_POINT('Ctrl Pts',(14.8051874501609,-42.1170157324349,28.4686679552274));
#339=CARTESIAN_POINT('Ctrl Pts',(12.0236980632009,-42.9994111319473,27.0757068006));
#340=CARTESIAN_POINT('Ctrl Pts',(6.21098101402831,-44.2147303758979,25.0419823370578));
#341=CARTESIAN_POINT('Ctrl Pts',(3.17653641567571,-44.55,24.4118311480315));
#342=CARTESIAN_POINT('Ctrl Pts',(7.21644966006352E-15,-44.55,24.4118311480315));
#343=CARTESIAN_POINT('Origin',(0.,0.,133.4));
#344=CARTESIAN_POINT('Origin',(-133.4,0.,0.));
#345=CARTESIAN_POINT('',(-133.4,-50.8,-6.22120573966855E-15));
#346=CARTESIAN_POINT('Origin',(-133.4,0.,0.));
#347=CARTESIAN_POINT('Origin',(0.,0.,0.));
#348=CARTESIAN_POINT('',(133.4,-50.8,-6.22120573966855E-15));
#349=CARTESIAN_POINT('Origin',(133.4,0.,0.));
#350=CARTESIAN_POINT('',(0.,-50.8,-6.22120573966855E-15));
#351=CARTESIAN_POINT('Origin',(133.4,0.,0.));
#352=UNCERTAINTY_MEASURE_WITH_UNIT(LENGTH_MEASURE(0.01),#356,
'DISTANCE_ACCURACY_VALUE',
'Maximum model space distance between geometric entities at asserted c
onnectivities');
#353=UNCERTAINTY_MEASURE_WITH_UNIT(LENGTH_MEASURE(0.01),#356,
'DISTANCE_ACCURACY_VALUE',
'Maximum model space distance between geometric entities at asserted c
onnectivities');
#354=(
GEOMETRIC_REPRESENTATION_CONTEXT(3)
GLOBAL_UNCERTAINTY_ASSIGNED_CONTEXT((#352))
GLOBAL_UNIT_ASSIGNED_CONTEXT((#356,#358,#359))
REPRESENTATION_CONTEXT('','3D')
);
#355=(
GEOMETRIC_REPRESENTATION_CONTEXT(3)
GLOBAL_UNCERTAINTY_ASSIGNED_CONTEXT((#353))
GLOBAL_UNIT_ASSIGNED_CONTEXT((#356,#358,#359))
REPRESENTATION_CONTEXT('','3D')
);
#356=(
LENGTH_UNIT()
NAMED_UNIT(*)
SI_UNIT(.MILLI.,.METRE.)
);
#357=(
LENGTH_UNIT()
NAMED_UNIT(*)
SI_UNIT(.CENTI.,.METRE.)
);
#358=(
NAMED_UNIT(*)
PLANE_ANGLE_UNIT()
SI_UNIT($,.RADIAN.)
);
#359=(
NAMED_UNIT(*)
SI_UNIT($,.STERADIAN.)
SOLID_ANGLE_UNIT()
);
#360=SHAPE_DEFINITION_REPRESENTATION(#361,#362);
#361=PRODUCT_DEFINITION_SHAPE('',$,#364);
#362=SHAPE_REPRESENTATION('',(#142),#354);
#363=PRODUCT_DEFINITION_CONTEXT('part definition',#368,'design');
#364=PRODUCT_DEFINITION('D8(R) 40\X\D735','D8(R) 40\X\D735',#365,#363);
#365=PRODUCT_DEFINITION_FORMATION('',$,#370);
#366=PRODUCT_RELATED_PRODUCT_CATEGORY('D8(R) 40\X\D735','D8(R) 40\X\D7
35',(#370));
#367=APPLICATION_PROTOCOL_DEFINITION('international standard',
'automotive_design',2009,#368);
#368=APPLICATION_CONTEXT(
'Core Data for Automotive Mechanical Design Process');
#369=PRODUCT_CONTEXT('part definition',#368,'mechanical');
#370=PRODUCT('D8(R) 40\X\D735','D8(R) 40\X\D735',$,(#369));
#371=PRESENTATION_STYLE_ASSIGNMENT((#372));
#372=SURFACE_STYLE_USAGE(.BOTH.,#375);
#373=SURFACE_STYLE_RENDERING_WITH_PROPERTIES($,#379,(#374));
#374=SURFACE_STYLE_TRANSPARENT(0.);
#375=SURFACE_SIDE_STYLE('',(#376,#373));
#376=SURFACE_STYLE_FILL_AREA(#377);
#377=FILL_AREA_STYLE('',(#378));
#378=FILL_AREA_STYLE_COLOUR('',#379);
#379=COLOUR_RGB('',0.749019607843137,0.749019607843137,0.749019607843137);
ENDSEC;
END-ISO-10303-21;
